Hero Theme (Mega Man Battle Network 5) Guitar Tab

Submitted: Jul 19, 2009 by Jacob31593

0
Download | Listen
Game: Mega Man Battle Network 5
Composer(s): Akari Kaida
Style: Transcription
Series: Mega Man

Click here for a video example.

AutoScroll: Slow | Medium | Fast
Hero Theme
Megaman Battlenetwork 5
Akari Kaida
Jacob31593
7/17/09




150 BPM
Timing is a little off, listen to the song to get it perfect.


      S  S  S  S  Q     S  S  E   E   E      Q     E   E   E   E   E   E   
E||-----------12-14----15-17-15--14--12--|--------14--15--17--15--14--12--|
B||--12-14-15----------------------------|--15----------------------------|
G||--------------------------------------|--------------------------------|
D||--------------------------------------|--------------------------------|
A||--------------------------------------|--------------------------------|
E||--------------------------------------|--------------------------------|


   E   Q.      Q.      E     E   H         Q.         S  S  Q.      S  S  E   E   E   
------12--------------12--|--L--------------------|-----12-14------15-17-15--14--12--|
--15----------12----------|-----15--------14------|--15------------------------------|
--------------------------|-----------------------|----------------------------------|
--------------------------|-----------------------|----------------------------------|
--------------------------|-----------------------|----------------------------------|
--------------------------|-----------------------|----------------------------------|


   Q     E   E   E   E   E   E      E   Q.      Q.      E      W                 
--14----19--21--22--21--19--17--|--19--22------21------22--|--22----------------|
--------------------------------|--------------------------|--------------------|
--------------------------------|--------------------------|--------------------|
--------------------------------|--------------------------|--------------------|
--------------------------------|--------------------------|--------------------|
--------------------------------|--------------------------|--------------------|


   E   E   E   E.   Q     E   S     E   Q     H         E   
--------------------------------|--------------------------|
--------------------------------|---L----------------------|
--12--14--15--14----------------|--------------------------|
-------------------15----10--10-|------12----12--------15--|
--------------------------------|--------------------------|
--------------------------------|--------------------------|


   E   E   E.   Q     E   E  S     Q     E   H         E   
-------------------------------|--------------------------|
---------------------13--16--L-|--15----13--11------------|
--12--14--15---14--------------|----------------------12--|
-------------------------------|--------------------------|
-------------------------------|--------------------------|
-------------------------------|--------------------------|


   E   E   E.   Q     E   E  S     Q     H         E   E      E   E   Q     E   Q     E   
-------------------------------|--------------------------|------------------------------|
-------------------------------|--------------------------|--------------------15----17--|
--14--15--14-------------------|--------------------------|--15--15--14----16------------|
---------------15----10--10--L-|--12----12--------15--17--|------------------------------|
-------------------------------|--------------------------|------------------------------|
-------------------------------|--------------------------|------------------------------|


  E   Q      
-----------||
--L--17----||
-----------||
-----------||
-----------||
-----------||
Login or Register to remove this ad.