Vampire (Mega Man Battle Network 4) Bass/Guitar Tab

Submitted: Jul 03, 2010 by Jacob31593 (Last updated: Feb 03, 2011)

0
Download | Listen
Game: Mega Man Battle Network 4
Composer(s): Akari Kaida
Style: 2 or more instruments, Alternate picking, Sweep picking, Transcription
Series: Mega Man

AutoScroll: Slow | Medium | Fast

Vampire from Megaman Battlenetwork 4
Composed by Akari Kaida
Tabbed by Jacob31593
July 3rd 2010

:E
oh yeah, the bass is a 5 string and the bottom string is tuned down a half step
95 BPM

Lead

                Q    E  E  Q    E  E      Q    E  E  H           Q    E  E  Q    E  E   
E||-------||---------------8----------|--------------8--------|-------------6----------|
B||-------||------------9-------9-----|-----------9-----------|----------7-------7-----|
G||-------||*--------9-------------9--|--------9--------------|-------7-------------7--|
D||-------||*--10---------------------|--10-------------------|--8---------------------|
A||-------||--------------------------|-----------------------|------------------------|
E||-------||--------------------------|-----------------------|------------------------|


  Q    E  E  H            Q    E  E  Q    E  E      Q    E  E  H           W                 
-------------6--------|--------------8----------|--------------8--------|--7----------------|
----------7-----------|-----------9-------9-----|-----------9-----------|-------------------|
-------7--------------|--------9-------------9--|--------9--------------|-------------------|
--8-------------------|--10---------------------|--10-------------------|-------------------|
----------------------|-------------------------|-----------------------|-------------------|
----------------------|-------------------------|-----------------------|-------------------|


  W                    E   Q     S  S  Q     E   E      E   E   E   E   Q     E   E   
--L----------------|------------------17------------|------------------17------------|
-------------------|---------------17-------17------|--------------17--------17------|
-------------------|--14--14----17--------------17--|--14--14--17----------------17--|
-------------------|--------------------------------|--------------------------------|
-------------------|--------------------------------|--------------------------------|
-------------------|--------------------------------|--------------------------------|


   E   Q     S  S  Q     E   E      Q     E   E   Q     E   E      E   Q     S  S  Q     E   E   
------------------16------------|----------------16------------|------------------17------------|
---------------15-------15------|------------15--------15------|---------------17-------17------|
--13--13----16--------------16--|--13----16----------------16--|--14--14----17--------------17--|
--------------------------------|------------------------------|--------------------------------|
--------------------------------|------------------------------|--------------------------------|
--------------------------------|------------------------------|--------------------------------|


   E   E   E   E   Q     E   E      Q.     S  S  Q.      S  S     W                 3x
------------------17------------|--19------L-17-16------16----|---------------------||
--------------17--------17------|--------------------------18-|--17-----------------||
--14--14--17----------------17--|-----------------------------|--------------------*||
--------------------------------|-----------------------------|--------------------*||
--------------------------------|-----------------------------|---------------------||
--------------------------------|-----------------------------|---------------------||




Duration Legend
---------------
W - whole
H - half
Q - quarter
E - 8th
S - 16th
T - 32nd
X - 64th
. - note dotted


Other Thing

      Q     Q     Q     Q          Q     Q     Q     Q        Q     Q     Q     Q     
E||--------------------------||---------------------------|--------------------------|
B||--------------------------||---------------------------|--------------------------|
G||--13----13----13----13----||*--13----13----13----13----|--13----13----13----13----|
D||--------------------------||*--------------------------|--------------------------|
A||--------------------------||---------------------------|--------------------------|
E||--------------------------||---------------------------|--------------------------|


   Q     Q     Q     Q        Q     Q     Q     Q        Q     Q     Q     Q        Q     Q     Q     Q     
--------------------------|--------------------------|--------------------------|--------------------------|
--------------------------|--------------------------|--------------------------|--------------------------|
--11----11----11----11----|--11----11----11----11----|--13----13----13----13----|--13----13----13----13----|
--------------------------|--------------------------|--------------------------|--------------------------|
--------------------------|--------------------------|--------------------------|--------------------------|
--------------------------|--------------------------|--------------------------|--------------------------|


   Q     Q     Q     Q        Q     Q     Q     Q        Q     Q     Q     Q        Q     Q     Q     Q     
--------------------------|--------------------------|--12----12----12----12----|--12----12----12----12----|
--------------------------|--------------------------|--------------------------|--------------------------|
--12----12----12----12----|--12----12----12----12----|--------------------------|--------------------------|
--------------------------|--------------------------|--------------------------|--------------------------|
--------------------------|--------------------------|--------------------------|--------------------------|
--------------------------|--------------------------|--------------------------|--------------------------|


   Q     Q     Q     Q        Q     Q     Q     Q        E   E   E   E   E   E   E   E   
--10----10----10----10----|--10----10----10----10----|--12--12--12--12--12--12--12--12--|
--------------------------|--------------------------|----------------------------------|
--------------------------|--------------------------|----------------------------------|
--------------------------|--------------------------|----------------------------------|
--------------------------|--------------------------|----------------------------------|
--------------------------|--------------------------|----------------------------------|


   E   E   E   E   E   E   E   E      E   E   E   E   E   E   E   E      Q     Q     Q     Q     3x
--12--12--12--12--12--12--12--12--|--10--10--10--10--10--10--10--10--|--10----10----10----10-----||
----------------------------------|----------------------------------|---------------------------||
----------------------------------|----------------------------------|--------------------------*||
----------------------------------|----------------------------------|--------------------------*||
----------------------------------|----------------------------------|---------------------------||
----------------------------------|----------------------------------|---------------------------||




Duration Legend
---------------
W - whole
H - half
Q - quarter
E - 8th
S - 16th
T - 32nd
X - 64th
. - note dotted


Bass

      Q    Q    Q    Q         Q.     Q    E  E  E     Q.     Q    E  E  E     Q.     Q    E  E  E   
G ||----------------------||------------------------|-----------------------|-----------------------|
D ||----------------------||*-----------------------|-----------------------|-----------------------|
A ||----------------------||----------3----1--------|---------3----1--------|---------1-------------|
E ||----------------------||*-----------------4--3--|-----------------4--3--|--------------4--2--1--|
A#||--2----2----2----2----||---2--------------------|--2--------------------|--0--------------------|


  Q.     Q    E  Q       Q.     Q    E  E  E     Q.     Q    E  E  E     Q    Q    Q    Q     
----------------------|-----------------------|-----------------------|----------------------|
----------------------|-----------------------|-----------------------|----------------------|
---------1-------1----|---------3----1--------|---------3----1--------|----------------------|
--------------4-------|-----------------4--3--|-----------------4--3--|----------------------|
--0-------------------|--2--------------------|--2--------------------|--0----0----0----0----|


  Q    Q    Q    E  E     S S S S S S S S S S S S S S S S    S S S S S S S S S S S S S S S S  
-----------------------|----------------------------------|----------------------------------|
-----------------------|----------------------------------|----------------------------------|
-----------------------|----------------------------------|----------------------------------|
-----------------------|------5-5-----5-5-----5-5-----5-5-|------5-5-----5-5-----5-5-----5-5-|
--0----0----0----0-----|--1-1-----1-1-----1-1-----1-1-----|--1-1-----1-1-----1-1-----1-1-----|


  S S S S S S S S S S S S S S S S    S S S S S S S S S S S S S S S S    S S S S S S S S S S S S S S S S  
----------------------------------|----------------------------------|----------------------------------|
----------------------------------|----------------------------------|----------------------------------|
----------------------------------|----------------------------------|----------------------------------|
------4-4-----4-4-----4-4-----4-4-|------4-4-----4-4-----4-4-----4-4-|------5-5-----5-5-----5-5-----5-5-|
--0-0-----0-0-----0-0-----0-0-----|--0-0-----0-0-----0-0-----0-0-----|--1-1-----1-1-----1-1-----1-1-----|


  S S S S S S S S S S S S S S S S    S S S S S S S S S S S S S S S S    S S S S S S S S S S S S S S S S  3x
----------------------------------|----------------------------------|-----------------------------------||
----------------------------------|----------------------------------|----------------------------------*||
----------------------------------|----------------------------------|-----------------------------------||
------5-5-----5-5-----5-5-----5-5-|------4-4-----4-4-----4-4-----4-4-|------4-4-----4-4-----4-4-----4-4-*||
--1-1-----1-1-----1-1-----1-1-----|--0-0-----0-0-----0-0-----0-0-----|--0-0-----0-0-----0-0-----0-0------||




Duration Legend
---------------
W - whole
H - half
Q - quarter
E - 8th
S - 16th
T - 32nd
X - 64th
. - note dotted
Login or Register to remove this ad.