Fighting Oneself (Mega Man Battle Network 4) Guitar Tab

Submitted: Apr 30, 2009 by Jacob31593 (Last updated: Nov 29, 2009)

0
Download | Listen
Game: Mega Man Battle Network 4
Composer(s): Akari Kaida
Style: Transcription
Series: Mega Man

AutoScroll: Slow | Medium | Fast
Boss Battle Theme
Megaman Battlenetwork 4
Composed by Akari Kaida
Jacob31593
4/30/09


Listen to the youtube video to get the timing right


E||--------------------14-------14-15-|--L-14----15-17---L----------------|
B||--13-15-17-15----17----17----------|--------------------13-15-17-15----|
G||-----------------------------------|-----------------------------------|
D||-----------------------------------|-----------------------------------|
A||-----------------------------------|-----------------------------------|
E||-----------------------------------|-----------------------------------|



-----14-------14-15-14----15-17--L-|--L-------------------14-------13-15-|
--17----17-------------------------|----13-15-17-15----17----17----------|
-----------------------------------|-------------------------------------|
-----------------------------------|-------------------------------------|
-----------------------------------|-------------------------------------|
-----------------------------------|-------------------------------------|



--L-17---17--15-13---------------|-------13-------13-15-20-----20-19-|
-------------------13-15-17-15---|----17----17-----------------------|
---------------------------------|-----------------------------------|
---------------------------------|-----------------------------------|
---------------------------------|-----------------------------------|
---------------------------------|-----------------------------------|


--------------------14-------14-15-|--L-14----15-17---L----------------|
--13-15-17-15----17----17----------|--------------------13-15-17-15----|
-----------------------------------|-----------------------------------|
-----------------------------------|-----------------------------------|
-----------------------------------|-----------------------------------|
-----------------------------------|-----------------------------------|



-----14-------14-15-14----15-17--L-|--L-------------------14-------13-15-|
--17----17-------------------------|----13-15-17-15----17----17----------|
-----------------------------------|-------------------------------------|
-----------------------------------|-------------------------------------|
-----------------------------------|-------------------------------------|
-----------------------------------|-------------------------------------|


 
--L-17---17--15-13---------------|-------13-20---20-19-19-17-17-15--|
-------------------13-15-17-15---|----17----------------------------|
---------------------------------|----------------------------------|
---------------------------------|----------------------------------|
---------------------------------|----------------------------------|
---------------------------------|----------------------------------|


     
--L-----------------------------|---------------------------15--|--L--------------------|
-----17-15-13-17-15-13-17----17-|--L-15-13-17-15-13-16----------|-------15-----L--------|
--------------------------------|-------------------------------|-----------------------|
--------------------------------|-------------------------------|-----------------------|
--------------------------------|-------------------------------|-----------------------|
--------------------------------|-------------------------------|-----------------------|



--------------------------------|----------------------15----|--13------18----17------|
--17-15-13-17-15-13-17----17-15-|--13-17-15-13-16------------|------------------------|
--------------------------------|----------------------------|------------------------|
--------------------------------|----------------------------|------------------------|
--------------------------------|----------------------------|------------------------|
--------------------------------|----------------------------|------------------------|

   
--20----19------||
----------------||
----------------||
----------------||
----------------||
----------------||


Replay from beginning until bored

Duration Legend
---------------
W - whole
H - half
Q - quarter
E - 8th
S - 16th
T - 32nd
X - 64th
. - note dotted
|-n-|  - n-tuplets


Tablature Legend
----------------
L - tied note
x - dead note
g - grace note
(n) - ghost note
> - accentuded note
NH - natural harmonic
AH - artificial harmonic
TH - tapped harmonic
SH - semi harmonic
PH - pitch harmonic
h - hammer on
p - pull off
b - bend
br - bendRelease
pb - preBend
pbr - preBendRelease
brb - bendReleaseBend
\n/ - tremolo bar dip
\n - tremolo bar dive
-/n - tremolo bar Release up
/n\ - tremolo bar inverted dip
/n - tremolo bar return
-\n - tremolo bar Release down
S - shift slide
s - legato slide
/ -  slide into from below or out of upwards
\ -  slide into from above or out of downwards
~ - vibrato
W - wide vibrato
tr - trill
TP - tremolo picking
T - tapping
S - slap
P - pop
< - fade in
^ - brush up
v - brush down
Login or Register to remove this ad.