Internet Area (Mega Man Battle Network 3) Bass/Guitar Tab

Submitted: Jun 12, 2012 by Jacob31593 (Last updated: Jun 12, 2012)

5
Average: 5 (4 votes)
Download | Listen
Game: Mega Man Battle Network 3
Composer(s): Yoshino Aoki
Style: 2 or more instruments, Alternate picking, Arrangement, Pinch harmonics, Sweep picking, Transcription
Series: Mega Man

AutoScroll: Slow | Medium | Fast

Internet Area from Mega Man Battle Network 3
Composed by Yoshino Aoki
Tabbed by Jacob31593
June 12th 2012

This song has a 16th note triplet feel
Some notes have been omitted from the song, the only thing this affects that you might notice is measure 16 of track two.
Im glad the internet theme in this game was so good~
130BPM

Lead

       E   E   E   E   Q    Q       E  Q    Q     E   E   E      Q.       H         E   
E||-----------16--19~--L----L----|--L------------19--17--16--|--16~------14~-----------|
B||---14--17---------------------|---------------------------|-------------------------|
G||*-----------------------------|---------------------------|-------------------------|
D||*-----------------------------|---------------------------|-------------------------|
A||------------------------------|---------------------------|-------------------------|
E||------------------------------|---------------------------|-------------------------|


   S  S  S  S  S  S  S  S  S  S  S  S  S  S  S  S     E   E   E   E   Q    Q       E  Q    Q     E   E   E   
--------------------------------------------------|----------16--19~--L----L----|--L------------19--17--16--|
--------------------------------------------------|--14--17---------------------|---------------------------|
--14-------16-------14-------16-------14----13----|-----------------------------|---------------------------|
-----14-------14-------14-------14----------------|-----------------------------|---------------------------|
--------16-------16-------16-------16----16----14-|-----------------------------|---------------------------|
--------------------------------------------------|-----------------------------|---------------------------|


   Q.       H         E      E  E   E  E   E  E   E  E     Q     H          Q        E.   E.   H         E   
--23~------19~-----------|--17-----16-----17-----19-----|------------------------|--------------------------|
-------------------------|------------------------------|------------------------|--------------------------|
-------------------------|------------------------------|-------13~--------16----|--14---13-----------------|
-------------------------|------------------------------|------------------------|------------16~--------L--|
-------------------------|------------------------------|------------------------|--------------------------|
-------------------------|------------------------------|------------------------|--------------------------|


   Q     H         Q        W                    Q     H          Q        Q.     E   Q.     E      W                       
------------------------|---------------------|------------------16----|------------------------|---------------------|----|
--------16--------------|--14~----------------|-------17~--------------|--16--------------------|--14~----------------|----|
--13--------------16----|---------------------|------------------------|-------------16---------|---------------------|----|
------------------------|---------------------|------------------------|------------------------|---------------------|----|
------------------------|---------------------|------------------------|------------------------|---------------------|----|
------------------------|---------------------|------------------------|------------------------|---------------------|----|


  S S  S S  S  S  S  S  S  S S  S S S S S    S S  S S  S  S  S  S  S  S S  S S S S S    S S  S S  S  S  S  S  S  S S  S S S S S  
------------------------------------------|------------------------------------------|------------------------------------------|
------------------------------------------|------------------------------------------|------------------------------------------|
-----------------------11-11---13---------|-----------------------11-11---13---------|-----------------------11-11---13---------|
------11---14-11-14-11--------------------|------11---14-11-14-11--------------------|------11---14-11-14-11--------------------|
------------------------------------------|------------------------------------------|------------------------------------------|
------------------------------------------|------------------------------------------|------------------------------------------|


  S S  S S  S  S  S  S  S  S S  S S S S S  4x
-------------------------------------------||
-------------------------------------------||
-----------------------11-11---13---------*||
------11---14-11-14-11--------------------*||
-------------------------------------------||
-------------------------------------------||


Panning Bloopy

      S  S  E  E   E  E   E  E   E     S  S  E  E   E  E   E  E   E     S  S  E  E   E  E   E  E   E   
E||---------------12------------12--|--------------12------------12--|--------------12------------12--|
B||---0----12---------0--12---------|--0----12---------0--12---------|--0----12---------0--12---------|
G||*-----------9-------------9------|-----------9-------------9------|-----------9-------------9------|
D||*----11--------------------------|----11--------------------------|----11--------------------------|
A||---------------------------------|--------------------------------|--------------------------------|
E||---------------------------------|--------------------------------|--------------------------------|


  S  S  E  E   E  E   E  E   E     S  S  E  E   E  E   E  E   E     S  S  E  E   E  E   E  E   E   
--------------12------------12--|--------------12------------12--|--------------12------------12--|
--0----12---------0--12---------|--0----12---------0--12---------|--0----12---------0--12---------|
-----------9-------------9------|-----------9-------------9------|-----------9-------------9------|
----11--------------------------|----11--------------------------|----11--------------------------|
--------------------------------|--------------------------------|--------------------------------|
--------------------------------|--------------------------------|--------------------------------|


  S  S  E  E   E  E   E  E   E     S  S  E  E   E  E   E  E   E      S S S  S S  S  S S  S S S  S S  S  S S  
--------------12------------12--|--------------12------------12--|------------------------------------------|
--0----12---------0--12---------|--0----12---------0--12---------|-------9-12----------------9-12-----------|
-----------9-------------9------|-----------9-------------9------|-----9-------------------9----------------|
----11--------------------------|----11--------------------------|--11----------------9-11----------------9-|
--------------------------------|--------------------------------|-----------------11------------------11---|
--------------------------------|--------------------------------|------------9-12----------------9-12------|


                                    |--3-|  |--3--|                                             
   S  S  S S  S S  S  S  S  S  S S  S S  S  S  S  S     S S S  S S  S  S S  S S S  S S  S  S S  
-----------9---------------------9------------------|------------------------------------------|
--------10--------------------10-----------------10-|-------9-12----------------9-12-----------|
-----11--------------------11-----------------11----|-----9-------------------9----------------|
--12-----------------11-12-----------------12-------|--11----------------9-11----------------9-|
----------------9-12------------------9-12----------|-----------------11------------------11---|
-------------10--------------------10---------------|------------9-12----------------9-12------|


                                    |--3-|  |--3--|                                             
   S  S  S S  S S  S  S  S  S  S S  S S  S  S  S  S     S S S  S S  S  S S  S S S  S S  S  S S  
-----------9---------------------9------------------|------------------------------------------|
--------10--------------------10-----------------10-|-------9-12----------------9-12-----------|
-----11--------------------11-----------------11----|-----9-------------------9----------------|
--12-----------------11-12-----------------12-------|--11----------------9-11----------------9-|
----------------9-12------------------9-12----------|-----------------11------------------11---|
-------------10--------------------10---------------|------------9-12----------------9-12------|


   S S S  S S  S  S S  S S S  S S  S  S S     S  S  S S  S S  S  S  S  S  S S  S S  S  S  
------------------------------------------|-----------9---------------------9------------|
-------9-12----------------9-12-----------|--------10--------------------10--------------|
-----9-------------------9----------------|-----11--------------------11-----------------|
--11----------------9-11----------------9-|--12-----------------11-12-----------------11-|
-----------------11------------------11---|----------------9-12------------------9-12----|
------------9-12----------------9-12------|-------------10--------------------10---------|


                           PH                                                                     
                           |--3--|  |--3--|  |--3--|  |--3--|                                     
   S  S  S S  S S  S  S    S  S  S  S  S  S  S  S  S  S  S  S    S  S  E  E   E  E   E  E     E   
-----------9------------<>14-21-17-14-------------------------|--------------12------------0g12--|
--------10----------------------------14----------------------|--0----12---------0--12-----------|
-----11----------------------------------14----------------14-|-----------9-------------9--------|
--12-----------------11---------------------16----------16----|----11----------------------------|
----------------9-12---------------------------16----17-------|----------------------------------|
-------------10-----------------------------------17----------|----------------------------------|


  S  S  E  E   E  E   E  E     E     S  S  E  E   E  E   E  E     E     S  S  E  E   E  E   E  E     E   4x
--------------12------------0g12--|--------------12------------0g12--|--------------12------------0g12---||
--0----12---------0--12-----------|--0----12---------0--12-----------|--0----12---------0--12------------||
-----------9-------------9--------|-----------9-------------9--------|-----------9-------------9--------*||
----11----------------------------|----11----------------------------|----11----------------------------*||
----------------------------------|----------------------------------|-----------------------------------||
----------------------------------|----------------------------------|-----------------------------------||


Wavy thing that I replaced with guitar chords

      W                   H        E  Q.        W                   W                   W                   H        E  Q.      
E||--------------------|---------------------|-------------------|-------------------|-------------------|---------------------|
B||---0----------------|--L--------L--5------|--0----------------|--L----------------|--0----------------|--L--------L--5------|
G||*--6----------------|--L--------L--6------|--6----------------|--L----------------|--6----------------|--L--------L--6------|
D||*--6----------------|--L--------L--6------|--4----------------|--L----------------|--6----------------|--L--------L--6------|
A||--------------------|---------------------|-------------------|-------------------|-------------------|---------------------|
E||--------------------|---------------------|-------------------|-------------------|-------------------|---------------------|


  W                   W                   W                   W                   W                   W                 
-------------------|-------------------|-------------------|-------------------|-------------------|-------------------|
--0----------------|--L----------------|--0----------------|--3----------------|--0----------------|--3----------------|
--6----------------|--L----------------|--6----------------|--6----------------|--6----------------|--6----------------|
--4----------------|--L----------------|--6----------------|--4----------------|--6----------------|--4----------------|
-------------------|-------------------|-------------------|-------------------|-------------------|--5----------------|
-------------------|-------------------|-------------------|-------------------|-------------------|-------------------|


  W                   W                   W                   W                   W                   H        E  Q.      
-------------------|-------------------|-------------------|-------------------|-------------------|---------------------|
--5----------------|--L----------------|--7----------------|--L----------------|--0----------------|--L--------L--5------|
--6----------------|--L----------------|--6----------------|--L----------------|--6----------------|--L--------L--6------|
--6----------------|--L----------------|--7----------------|--L----------------|--6----------------|--L--------L--6------|
--7----------------|--L----------------|--9----------------|--L----------------|-------------------|---------------------|
-------------------|-------------------|-------------------|-------------------|-------------------|---------------------|


  W                   W                 4x
-------------------|--------------------||
--0----------------|--L-----------------||
--6----------------|--L----------------*||
--4----------------|--L----------------*||
-------------------|--------------------||
-------------------|--------------------||


Bass.exe

      E  E  E  Q    E  S S E     E  E  E  Q    E  E  E     E  E  E  Q    E  S S E     E  E  E  Q    E  S S E   
G||-----------------6---------|----------------6--------|----------------9---------|----------------9---------|
D||*--------------------------|-------------------------|--------------------------|--------------------------|
A||*--4-----4----------4-4-4--|--4-----4----------------|--7-----7----------7-7-7--|--7-----7----------7-7-7--|
E||---------------------------|-------------------------|--------------------------|--------------------------|


  E  E  E  Q    E  S S E     E  E  E  Q    E  E  E     E  E  E  Q    E  S S E     E  E  E  Q    E  S S E   
----------------6---------|----------------6--------|----------------9---------|----------------9---------|
--------------------------|-------------------------|--------------------------|--------------------------|
--4-----4----------4-4-4--|--4-----4----------------|--7-----7----------7-7-7--|--7-----7----------7-7-7--|
--------------------------|-------------------------|--------------------------|--------------------------|


  E  S S E  E  E  E  S S E     E  S S E  E  E  E  S S E     E  S S E  E  E  E  S S E     E  S S E  E  E  E  S S S S  
------------------6---------|------------------7---------|------------------6---------|------------------7--------7-|
----------------------------|-------4-4------------------|----------------------------|-------4-4-------------------|
--4----7-7--4--------4-4-4--|--5---------5--------5-5-5--|--4----7-7--4--------4-4-4--|--5---------5--------5-5-5---|
----------------------------|----------------------------|----------------------------|-----------------------------|


                                                                                         W                    
  E  S S E  E  E  E  S S E     E  S S E  E  E  E  S S E     E  S S E  E  E  E  S S E     Q    Q    Q    Q     
------------------6---------|------------------6---------|------------------7---------|----------------------|
----------------------------|----------------------------|-------4-4------------------|----------------------|
--4----7-7--4--------4-4-4--|--4----7-7--4--------4-4-4--|--5---------5--------5-5-5--|--5-------------------|
----------------------------|----------------------------|----------------------------|----------------------|


  E  E  E  Q    E  S S E     E  E  E  Q    E  E  E     E  E  E  Q    E  S S E     E  E  E  Q    E  S S E   4x
----------------6---------|----------------6--------|----------------9---------|----------------9----------||
--------------------------|-------------------------|--------------------------|--------------------------*||
--4-----4----------4-4-4--|--4-----4----------------|--7-----7----------7-7-7--|--7-----7----------7-7-7--*||
--------------------------|-------------------------|--------------------------|---------------------------||




Duration Legend
---------------
W - whole
H - half
Q - quarter
E - 8th
S - 16th
. - note dotted
|-n-|  - n-tuplets


Tablature Legend
----------------
L - tied note
g - grace note
PH - pitch harmonic
W - wide vibrato
Login or Register to remove this ad.