Competition Battle (Mega Man Battle Network 3) Bass/Guitar Tab

Submitted: Jun 22, 2012 by Jacob31593 (Last updated: Jun 22, 2012)

5
Average: 5 (2 votes)
Download | Listen
Game: Mega Man Battle Network 3
Composer(s): Yoshino Aoki
Style: 2 or more instruments, Alternate picking, Arrangement, Sweep picking, Tapping, Transcription
Series: Mega Man

AutoScroll: Slow | Medium | Fast

Competition Battle from Mega Man Battle Network 3
Composed by Yoshino Aoki
Tabbed by Jacob31593
June 22nd 2012

Battle Network 3 is one of the two from the series with TWO BOSS THEMES :O
This is the one that plays during the N1 Grand Prix battles, I'll tab the
other one later~

160 BPM

Lead

                                      E  E   E   Q     E   E  E      Q    Q.     E   E   E      E   E  H         Q             
E||--------|-------|-------|-------|--9---------12----11----------|-------------------------|----------9~--------L----|-------|
B||--------|-------|-------|-------|----------------------12--9~--|--L----L------9--10--12--|--12--10-----------------|-------|
G||*-------|-------|-------|-------|-----9--11--------------------|-------------------------|-------------------------|-------|
D||*-------|-------|-------|-------|------------------------------|-------------------------|-------------------------|-------|
A||--------|-------|-------|-------|------------------------------|-------------------------|-------------------------|-------|
E||--------|-------|-------|-------|------------------------------|-------------------------|-------------------------|-------|


  E  E   E   Q     Q     E     E  E   E   Q     Q     E     E  E   E   Q     E   E  E      E   E   E   E   E   Q    E   
--9---------12----11--------|--9---------12----11--------|--9---------12----11------9--|--16--12--14--16--17--19-------|
------------------------12--|------------------------12--|----------------------12-----|-------------------------------|
-----9--11------------------|-----9--11------------------|-----9--11-------------------|-------------------------------|
----------------------------|----------------------------|-----------------------------|-------------------------------|
----------------------------|----------------------------|-----------------------------|-------------------------------|
----------------------------|----------------------------|-----------------------------|-------------------------------|


  Q    Q    Q     E   E     E.   E.   Q     E.  E.     Q    Q    Q     E   E     E.   E.   Q     E   E  E   
-------------------------|--9-----------------------|-------------------------|--9----------------------9--|
-----------------10--12--|------12---10~----9-------|-----------------10--12--|------12---10~----9--10-----|
-------------------------|----------------------9---|-------------------------|----------------------------|
-------------------------|--------------------------|-------------------------|----------------------------|
-------------------------|--------------------------|-------------------------|----------------------------|
-------------------------|--------------------------|-------------------------|----------------------------|


   Q     E  Q.       E   E     E   E   E  E   E  E   E   E      Q      E   Q     E   E  E      Q.      Q.      E  E   
--10----12--9~--------------|-------------------------------|---------------------------9--|--12------11----------9--|
--------------------12--10--|--9--10--12---------9--10--12--|--11~--------------10--12-----|------------------12-----|
----------------------------|-------------9--11-------------|-------------11---------------|-------------------------|
----------------------------|-------------------------------|---------11-------------------|-------------------------|
----------------------------|-------------------------------|------------------------------|-------------------------|
----------------------------|-------------------------------|------------------------------|-------------------------|


  E  E  E  E   3x
--L------------||
---------------||
--------------*||
--------------*||
---------------||
---------------||

Panny McBloop

          E   S  S  S  S  S  S  S  S  S  S  S  S  S  S     S  S  S  S  S  S  S  S  S  S  S  S  S  S  S  S  
E||----------------------------------------------------|--------------------------------------------------|
B||----------------------------------------------------|--------------------------------------11----12----|
G||*---------11----13----------11----13----------11----|--13----11-------11----13-11----13----------------|
D||*--14g11-----11----11-14-11----11----11-14-11----11-|-----11----14-11----11-------11----11----11----11-|
A||----------------------------------------------------|--------------------------------------------------|
E||----------------------------------------------------|--------------------------------------------------|


      E   S  S  S  S  S  S  S  S  S  S  S  S  S  S     S  S  S  S  S  S  S  S  S  S  S  S  S  S  S  S  
---------------------------------------------------|--------------------------------------------------|
---------------------------------------------------|--------------------------------------11----12----|
---------11----13----------11----13----------11----|--13----11-------11----13-11----13----------------|
--14g11-----11----11-14-11----11----11-14-11----11-|-----11----14-11----11-------11----11----11----11-|
---------------------------------------------------|--------------------------------------------------|
---------------------------------------------------|--------------------------------------------------|


   S  S  S  S  S  S  S  S  S  S  S  S  S  S  S  S     S  S  S  S  S  S  S  S  S  S  S  S  S  S  S  S  
--------------------------------------------------|--------------------------------------------------|
--------------------------------------------------|--------------------------------------11----12----|
--------11----13----------11----13----------11----|--13----11-------11----13-11----13----------------|
--14-11----11----11-14-11----11----11-14-11----11-|-----11----14-11----11-------11----11----11----11-|
--------------------------------------------------|--------------------------------------------------|
--------------------------------------------------|--------------------------------------------------|


   S  S  S  S  S  S  S  S  S  S  S  S  S  S  S  S     S  S  S  S  S  S  S  S  S  S  S  S  S  S  S  S  
--------------------------------------------------|--------------------------------------------------|
--------------------------------------------------|--------------------------------------------------|
--------11----13----------11----13----------11----|--13----11-------11----13-------------11----13----|
--14-11----11----11-14-11----11----11-14-11----11-|-----11----14-11----11----12-11-14-11----11----11-|
--------------------------------------------------|--------------------------------------------------|
--------------------------------------------------|--------------------------------------------------|


   S  S  S  S  S  S  S  S  S  S  S  S  S  S  S  S     S  S  S  S  S  S  S  S  S  S  S  S  S  S  S  S  
--------------------------------------------------|--------------------------------------------------|
--------------------------------------------------|--------------------------------------11----12----|
--------11----13----------11----13----------11----|--13----11-------11----13-11----13----------------|
--14-11----11----11-14-11----11----11-14-11----11-|-----11----14-11----11-------11----11----11----11-|
--------------------------------------------------|--------------------------------------------------|
--------------------------------------------------|--------------------------------------------------|


   S  S  S  S  S  S  S  S  S  S  S  S  S  S  S  S     S  S  S  S  S  S  S  S  S  S  S  S  S  S  S  S  
--------------------------------------------------|-----------------------------------------------14-|
--------------------------------------------------|-----------------------------------------12-14----|
--------11----13----------11----13----------11----|--13----11-------11----13-------------11----------|
--14-11----11----11-14-11----11----11-14-11----11-|-----11----14-11----11----------11-14-------------|
--------------------------------------------------|-----------------------------12-------------------|
--------------------------------------------------|--------------------------14----------------------|


   S  S  S  S  S  S  S  S  S  S  S  S  S  S  S  S     S  S  S  S  S  S  S  S  S  S  S  S  S  S  S  S  
-----------------------12-16-12-------------------|-----------------------12-16-12-------------------|
--------------------14----------14----------------|--------------------14----------14----------------|
--------------13-14----------------14-13----------|--------------13-14----------------14-13----------|
--------11-14----------------------------14-11----|--------11-14----------------------------14-11----|
-----12----------------------------------------12-|-----12----------------------------------------12-|
--14----------------------------------------------|--14----------------------------------------------|


   S  S  S  S  S  S  S  S  S  S  S  S  S  S  S  S     S  S  S  S  S  S  S  S  S  S  S  S  S  S  S  S  
-----------------------12-16-12-------------------|-----------------------12-16-12-------------------|
--------------------14----------14----------------|--------------------14----------14----------------|
--------------13-14----------------14-13----------|--------------13-14----------------14-13----------|
--------11-14----------------------------14-11----|--------11-14----------------------------14-11----|
-----12----------------------------------------12-|-----12----------------------------------------12-|
--14----------------------------------------------|--14----------------------------------------------|


   E   S  S  E   E  S S S  S S  S S S    E  S  S S  S  S E  S S  S S  S  S S    E  E  E  E  S  S  S  S  S  S  S  S  
--------------------------------------|--------------------------------------|----------------19-17----------------|
--12-----12-14--10--------------------|--------------------------------------|----------------------17-------------|
------11---------------------9--------|--------------------------------------|-------------------------16-14-------|
--------------------0---7-11---11-7---|----------9-----------------9---------|-------------------------------14-11-|
----------------------9-------------9-|-----7-11---11-11-7----7-11---11-11-7-|-------------------------------------|
--------------------------------------|--9------------------9----------------|-------------------------------------|


   T   T   T  T    T  T   T  T         T     T     
   E   E.  S  E.   S  E.  S  E     E   Q     E   3x
------14-----14------14-----14--|--L--14----14---||
--------------------------------|----------------||
--13-------1------13------1-----|---------------*||
--------------------------------|---------------*||
--------------------------------|----------------||
--------------------------------|----------------||


Wavy Wahwp
                                                                                              Q    Q    Q     E   E   
E||--------|-------|-------|-------|-------|-------|-------|-------|-------|-------|-------|-------------------------|
B||--------|-------|-------|-------|-------|-------|-------|-------|-------|-------|-------|-----------------17--16--|
G||*-------|-------|-------|-------|-------|-------|-------|-------|-------|-------|-------|-------------------------|
D||*-------|-------|-------|-------|-------|-------|-------|-------|-------|-------|-------|-------------------------|
A||--------|-------|-------|-------|-------|-------|-------|-------|-------|-------|-------|-------------------------|
E||--------|-------|-------|-------|-------|-------|-------|-------|-------|-------|-------|-------------------------|


   Q     E   H        E      H         H            Q     E   H        E      H         H            E  E  Q    Q    Q     
-------------------------|----------------------|-------------------------|--14------------------|------------------------|
--16----17--14--------L--|--17--------16--------|--16----17--14--------L--|------------17--------|--15--------------------|
-------------------------|----------------------|-------------------------|----------------------|------------------------|
-------------------------|----------------------|-------------------------|----------------------|------------------------|
-------------------------|----------------------|-------------------------|----------------------|------------------------|
-------------------------|----------------------|-------------------------|----------------------|------------------------|


                   Q.      Q.      E   E     E  E  E  E   3x
-------|-------|--16------14--------------|---------------||
-------|-------|------------------16--17--|--L------------||
-------|-------|--------------------------|--------------*||
-------|-------|--------------------------|--------------*||
-------|-------|--------------------------|---------------||
-------|-------|--------------------------|---------------||

Stringy

       E  E  E   E  E  E  E  E      E  E  E  E  E  E  E  E      E  E  E   E  E  E  E  E      E  E  E   E  E  E  E  E         
E||-----------------------------|---------------------------|----------------------------|----------------------------|-----|
B||---12--------11--------------|--10--------9--------------|--12--------11--------------|--10--------12--------------|-----|
G||*--11--------10--------------|---9--------8--------------|--11--------10--------------|---9--------11--------------|-----|
D||*---9---------8--------------|---7--------6--------------|---9---------8--------------|---7---------9--------------|-----|
A||-----------------------------|---------------------------|----------------------------|----------------------------|-----|
E||-----------------------------|---------------------------|----------------------------|----------------------------|-----|


                E.  E.  E  E  E  E  E     H         H           H         H           H         H           H         H          
-----|-------|-------------------------|---------------------|---------------------|---------------------|----------------------|
-----|-------|-------------------------|---------------------|---------------------|--4~--------L--------|--5~--------7~--------|
-----|-------|----------------------4--|--4~--------L--------|--6~--------L--------|---------------------|----------------------|
-----|-------|--4---6------4--6--7-----|---------------------|---------------------|---------------------|----------------------|
-----|-------|----------7--------------|---------------------|---------------------|---------------------|----------------------|
-----|-------|-------------------------|---------------------|---------------------|---------------------|----------------------|


  E  E  E   Q.      Q                   E  E  E   Q.      Q                                            Q    E   Q    Q    E   
--7-----9----------------|-----------|--7-----9----------------|-----------|-----------|-----------|-------------------------|
-----------10~-----------|-----------|-----------10~-----------|-----------|-----------|-----------|-------------------------|
-------------------------|-----------|-------------------------|-----------|-----------|-----------|--11---------------------|
-------------------------|-----------|-------------------------|-----------|-----------|-----------|--------8--11------------|
-------------------------|-----------|-------------------------|-----------|-----------|-----------|-------------------------|
-------------------------|-----------|-------------------------|-----------|-----------|-----------|-------------------------|


                        3x
-----------|------------||
-----------|------------||
-----------|-----------*||
-----------|-----------*||
-----------|------------||
-----------|------------||

Forte.exe

      S S S S  E  S S S S  E  S S  E     S S S S  E  S S S S  E  S S  E     S S S S  E  S S S S  E  S S  E   
G||-----------------------------------|----------------------------------|----------------------------------|
D||*----------------------11----------|----------------------11----------|----------------------11----------|
A||*----------11----------------------|----------11----------------------|----------11----------------------|
E||---9-9---9-----9-9---9-------9-12--|--9-9---9-----9-9---9-------9-12--|--9-9---9-----9-9---9-------9-12--|


  S S S S  E  S S S S  E  S S  E     S S S S  E  S S S S  E  S S  E     S S S S  E  S S S S  E  S S  E   
----------------------------------|----------------------------------|----------------------------------|
----------------------11----------|----------------------11----------|----------------------11----------|
----------11----------------------|----------11----------------------|----------11----------------------|
--9-9---9-----9-9---9-------9-12--|--9-9---9-----9-9---9-------9-12--|--9-9---9-----9-9---9-------9-12--|


   S  S S  S  E   S  S S  S  E  S  S E      S  S S  S  E   S  S S  S  E  S  S E      S  S S  S  E   S  S S  S  E  S  S  E   
----------------------------------------|----------------------------------------|-----------------------------------------|
----------------------------12----------|----------------------------12----------|----------------------------14-----------|
-------------12----------------------9--|-------------12----------------------9--|-------------14----------------------11--|
--10-10---10-----10-10---10-------10----|--10-10---10-----10-10---10-------10----|--12-12---12-----12-12---12-------12-----|


  S S S S  E  S S S S  E  S S  E      S  S S  S  E   S  S S  S  E  S  S E     S S S S E  S S S S E  S S E   
----------------------11----------|----------------------------13----------|----------9--------------------|
----------11----------------------|-------------13----------------------9--|--7-7---7----7-7-----9---------|
--9-9---9-----9-9---9-------9-12--|--11-11---11-----11-11---11-------11----|--------------------------7-6--|
----------------------------------|----------------------------------------|-------------------7-----------|


  Q     E  E.  E  S E  E     E  E  S E  S S S E  E  S S    Q     E  E.  E  S E  E     E  E  S S S S S S E  E  E   
--------------------------|-------------------4---------|--------------------------|--------------------1--------|
--7~-------7--------7--5--|----------7----7------7--5---|--4~-------4--------4--2--|----------4-----4------4--2--|
--------0------0--0-------|-----0--0----0---0-----------|--------------------------|-----------------------------|
--------------------------|---------------------------4-|--------2------2--2-------|-----2--2---2-2---2----------|


  Q.      E.  E  S E  E     E  E  S E  S S S E  E  S S    E   E  S E.  S E  S E  E     Q.     E  E  E  E  E         3x
----------7--------7-----|--6-------6----6---8--6------|-----11---------------------|------------------------|------||
-------------------------|-----------------------------|----------------------9--7--|--6---------------------|-----*||
--5~----------5--5----5--|-----4--4----4---4-------6-7-|--9--------9-----9--9-------|------------------------|-----*||
-------------------------|-----------------------------|---------9------------------|------------------------|------||

Duration Legend
---------------
W - whole
H - half
Q - quarter
E - 8th
S - 16th
. - note dotted


Tablature Legend
----------------
L - tied note
x - dead note
g - grace note
~ - vibrato
T - tapping
Login or Register to remove this ad.

5 comments on Competition Battle

YES!

5

This is amazing! I've been waiting for Megaman.Exe tabs for a while now. You've been doing a lot lately. This is one of my favourite songs from the series. Thanks so much for the tab! There are so many other amazing songs in the exe series, I hope you be doing more! :D Thanks!

i just uploaded another one

i just uploaded another one :D
do you have any requests?

Well, I'd like most of the

Well, I'd like most of the virus busting/boss/final boss music of each MMBN(except 4.5), but that would be stupidly unrealistic to ask so... I just started replaying the MMBN series and I'm on MMBN1 atm, so if you could do the nostalgic and amazing virus battle theme from MMBN1...
It would be very awesome of you! :D

i have lots of stuffs to do

i have lots of stuffs to do today, but i can start it tomorrow!

Thanks! :D No rush of

5

Thanks! :D
No rush of course!:)