Official Center (Mega Man Battle Network 2) Guitar Tab

Submitted: Jun 21, 2013 by roguezam

0
Download | Listen
Game: Mega Man Battle Network 2
Composer(s): Yoshino Aoki
Style: Transcription
Series: Mega Man

AutoScroll: Slow | Medium | Fast
Official Center
Mega Man Battle Network 2
Tabbed by roguezam


Part 1

E||-----------------------------------------12--10----------------------------|
B||-------------------------------------10------------------------------------|
G||-------------------------------9--7-----------------7--6-------------------|
D||------9---7--6--7--9--6-----------------------------------7--9-------------|
A||--7----------------------7--7--------------------7-------------------------|
E||---------------------------------------------------------------------------|


  |-----------------------------------------12--10----------------------------|
  |-------------------------------------10------------------------------------|
  |-------------------------------9--7-----------------7--6-------------------|
  |------9---7--6--7--9--6-----------------------------------7--9-------------|
  |--7----------------------7--7--------------------7--------------7----------|
  |---------------------------------------------------------------------------|

Part 2                 
       
  |-------------------------------------------|--------------------------------------------|
  |-------------------------------------------|--------------------------------------------|
  |-------------------------------------------|-----9--7-----7--5---------------7--7---9---|
  |--9--7--5--4--5--7------------------4--7-7-|--------------------7----5--7----7--7---9---|
  |--------------------9--7-----2-3-5---------|--7--------5---------------------5--5---7---|
  |--------------------------5----------------|--------------------------------------------|


Go back to part 1 and repeat until you feel like
you're finished.
Login or Register to remove this ad.