Battle Spirit (Mega Man Battle Network 2) Bass/Guitar Tab

Submitted: Jun 30, 2012 by Jacob31593 (Last updated: Jun 30, 2012)

0
Download | Listen
Game: Mega Man Battle Network 2
Composer(s): Yoshino Aoki
Style: 2 or more instruments, Alternate picking, Arrangement, Transcription
Series: Mega Man

This song is also called Boss Theme

AutoScroll: Slow | Medium | Fast

Battle Spirit Mega Man Battle Network 2
Composed by Yoshino Aoki
Tabbed by Jacob31593
June 30th 2012

ok, i think im done tabbing battle network songs for now

145BPM

Lead

                                                                        Q.      E   E  S  E  S  E      H         Q    Q     
E||-------|-------|-------|-------||--------|-------|-------|-------|--15~---------15--------------|-----------------------|
B||-------|-------|-------|-------||--------|-------|-------|-------|--------------------19----18--|--15~------------------|
G||-------|-------|-------|-------||*-------|-------|-------|-------|------------------------------|-----------------------|
D||-------|-------|-------|-------||*-------|-------|-------|-------|------------------------------|-----------------------|
A||-------|-------|-------|-------||--------|-------|-------|-------|------------------------------|-----------------------|
E||-------|-------|-------|-------||--------|-------|-------|-------|------------------------------|-----------------------|


                   Q     E   E   Q     E   E      Q     E   E   Q     E   E      E   E   E   Q.      E  E   
-------|-------|--15~-----------17~-----------|--19~-----------20~-------17--|--15----------19~------------|
-------|-------|------------17------------19--|------------20----------------|------15--17-----------------|
-------|-------|------------------------------|------------------------------|-----------------------------|
-------|-------|------------------------------|------------------------------|-----------------------------|
-------|-------|------------------------------|------------------------------|-----------------------------|
-------|-------|------------------------------|------------------------------|-----------------------------|


   S  S  S  S  S  S  S  S  S  S  S  S  S  S  S  S     Q    E  S  S  E   S  E   E.      E   S  E.   Q     S  E   E.   
--22-24-22-19-22-20-19-15-17-19-20-17-------------|--------------------------------|--------------------------------|
--------------------------------------18-17-------|--------------------------------|--------------------------------|
--------------------------------------------17-19-|--14----L--L--------------------|--------------12----------------|
--------------------------------------------------|-------------10-10--12-12--15---|--14--14-14---------14-14--10---|
--------------------------------------------------|--------------------------------|--------------------------------|
--------------------------------------------------|--------------------------------|--------------------------------|


   Q     S  S  S  S  E.   E.   E      Q     Q    Q    Q                                     3x
----------------------------------|------------------------|-------|-------|-------|--------||
----------------------------------|--12~----L----L---------|-------|-------|-------|--------||
-----------12-14----11---12---14--|------------------------|-------|-------|-------|-------*||
--14-------------14---------------|------------------------|-------|-------|-------|-------*||
--------14------------------------|------------------------|-------|-------|-------|--------||
----------------------------------|------------------------|-------|-------|-------|--------||


Harmony

                                        Q.          E   E.   E.   E      H         E   E.   E.      E.   E.   E   H          
E||-------|-------|-------|-------||---22~------20g22--22---21---20--|--19~-----------17--------|-------17---19-------------|
B||-------|-------|-------|-------||---------------------------------|---------------------19---|--20------------17~--------|
G||-------|-------|-------|-------||*--------------------------------|--------------------------|---------------------------|
D||-------|-------|-------|-------||*--------------------------------|--------------------------|---------------------------|
A||-------|-------|-------|-------||---------------------------------|--------------------------|---------------------------|
E||-------|-------|-------|-------||---------------------------------|--------------------------|---------------------------|


   E.   E.   E   H             Q.          E   E.   E.   E      H         E   E.   E.      E.   E.   E   H          
------------17-------------|--22~------20g22--22---21---20--|--19~-----------17--------|-------17---19-------------|
--19---20------------------|--------------------------------|---------------------19---|--20------------17~--------|
----------------19~--------|--------------------------------|--------------------------|---------------------------|
---------------------------|--------------------------------|--------------------------|---------------------------|
---------------------------|--------------------------------|--------------------------|---------------------------|
---------------------------|--------------------------------|--------------------------|---------------------------|


   E.   E.   E   E.   E.   E      Q     Q    Q    Q                          H          H             H          H          
------------17--19---20---22--|--24~----L----L---------|-----|-----|-----|--20~-------------------|-------------19~--------|
--19---20---------------------|------------------------|-----|-----|-----|-------------18~--------|--20~-------------------|
------------------------------|------------------------|-----|-----|-----|------------------------|------------------------|
------------------------------|------------------------|-----|-----|-----|------------------------|------------------------|
------------------------------|------------------------|-----|-----|-----|------------------------|------------------------|
------------------------------|------------------------|-----|-----|-----|------------------------|------------------------|


   H         E   Q     E      W                                                                              
--17~--------L--19----20--|--22~----------------|-------------------|-------------------|-------------------|
--------------------------|---------------------|-------------------|-------------------|-------------------|
--------------------------|---------------------|-------------------|-------------------|-------------------|
--------------------------|---------------------|-------------------|-------------------|-------------------|
--------------------------|---------------------|-------------------|-------------------|-------------------|
--------------------------|---------------------|-------------------|-------------------|-------------------|


                    3x
--------------------||
--------------------||
-------------------*||
-------------------*||
--------------------||
--------------------||

Bloop

                                        S  S  S  E   S  E   S  S  S  E   S  E      S  S  S  E   S  E   S  S  E.   E.   
E||-------|-------|-------|-------||---19-19-19-19--19-19--19-19-19-19--19-19--|--15-15-15-15--15-15--15-15-21---22---|
B||-------|-------|-------|-------||-------------------------------------------|--------------------------------------|
G||-------|-------|-------|-------||*------------------------------------------|--------------------------------------|
D||-------|-------|-------|-------||*------------------------------------------|--------------------------------------|
A||-------|-------|-------|-------||-------------------------------------------|--------------------------------------|
E||-------|-------|-------|-------||-------------------------------------------|--------------------------------------|


   S  S  S  E   S  E   S  S  S  E   S  E      S  S  S  E   S  E   S  S  S  S  S  S  E   
--19-19-19-19--19-19--19-19-19-19--19-19--|--19-19-19-19--19-19--19-19-19-19-19-19-19--|
------------------------------------------|--------------------------------------------|
------------------------------------------|--------------------------------------------|
------------------------------------------|--------------------------------------------|
------------------------------------------|--------------------------------------------|
------------------------------------------|--------------------------------------------|


   S  S  S  E   S  E   S  S  S  E   S  E      S  S  S  E   S  E   S  S  E.   E.      S  S  S  E   S  E   S  S  S  E   S  E   
--19-19-19-19--19-19--19-19-19-19--19-19--|--15-15-15-15--15-15--15-15-21---22---|--19-19-19-19--19-19--19-19-19-19--19-19--|
------------------------------------------|--------------------------------------|------------------------------------------|
------------------------------------------|--------------------------------------|------------------------------------------|
------------------------------------------|--------------------------------------|------------------------------------------|
------------------------------------------|--------------------------------------|------------------------------------------|
------------------------------------------|--------------------------------------|------------------------------------------|


   S  S  S  E   S  E   S  S  S  S  S  S  E                              S  S  S  E   S  S  S  S  S  S  E   S  S  S  
--19-19-19-19--19-19--19-19-19-19-19-19-19--|-----|-----|-----|-----|--20--------------------20--------------------|
--------------------------------------------|-----|-----|-----|-----|-----21-18-----------21----21-18-----------21-|
--------------------------------------------|-----|-----|-----|-----|-----------19--17-19-------------19--17-19----|
--------------------------------------------|-----|-----|-----|-----|----------------------------------------------|
--------------------------------------------|-----|-----|-----|-----|----------------------------------------------|
--------------------------------------------|-----|-----|-----|-----|----------------------------------------------|


   S  S  S  E   S  S  S  S  S  S  E   S  S  S     S  S  S  E   S  S  S  S  S  S  E   S  S  S  
--19--------------------19--------------------|----------------------------------------------|
-----20-17-----------20----20-17-----------17-|--20-17--------------17-20-17--------------17-|
-----------17--16-17-------------17--16-17----|--------17--------17----------17--------17----|
----------------------------------------------|-----------19--19----------------19--19-------|
----------------------------------------------|----------------------------------------------|
----------------------------------------------|----------------------------------------------|


   S  S  S  S  S  S  S S T  T T  S T T  S T T T T T T T         S  E  E   E  E  E   S  S S  S  S  
--19-17-14----------------------------------------------|----|----12-----12--------12------------|
-----------15-12----------------------------------------|----|-----------------------------------|
-----------------14-11-7----------------------------7---|----|--9-----9------9--9-----12-9-11-12-|
--------------------------------------------------------|----|-----------------------------------|
------------------------------7------7-10-9-7-9-7-9-----|----|-----------------------------------|
-------------------------7-10---10-7--------------------|----|-----------------------------------|


  S  E  E   E  E  E   S  S  S  S  S     E   E.   E.  E  E  E  E   3x
----12-----12--------12-------------|-----------------------------||
------------------------12----10-12-|-----------------------------||
--9-----9------9--9--------12-------|--12--12---12---------------*||
------------------------------------|----------------------------*||
------------------------------------|-----------------------------||
------------------------------------|-----------------------------||


Rhythm

             Q    Q    E  E.  E.             E  E.  E.  Q    Q         S E  E   S E  S E  E   S E     S E  E   S E  S S E.  E.   
E||-------|-----------------------|-------|-----------------------||--------------7----------------|-------------7--------------|
B||-------|-----------------------|-------|-----------------------||--------8--10---------8--10-7--|-------8--10----------------|
G||-------|---------------7---9---|-------|-----9---9-------------||*--7-9-----------7-9-----------|--7-9-------------7-9-------|
D||-------|---------------5---9---|-------|-----9---9-------------||*------------------------------|----------------9-------9---|
A||-------|---------------5---7---|-------|-----7---7-------------||-------------------------------|----------------------------|
E||-------|-----------------------|-------|-----------------------||-------------------------------|----------------------------|


  S E  E  S E  S E  E  S E      S E  E  S E   S E  E  S  E           S E  E  S E  S S E.  E.     S E  E  S E  S E  E  S E   
----------------------------|-------------------------7-----|-----|---------------------------|----------------------------|
----------7-8----------7-8--|-----------7---------------10--|-----|---------------------------|----------7-8----------7-8--|
----7--9---------7--9-------|-----7--9----7-----7--9--------|-----|-----------------7-9-------|----7--9---------7--9-------|
--9------------9------------|--10------------10-------------|-----|---------------9-------9---|--9------------9------------|
----------------------------|-------------------------------|-----|---------------------------|----------------------------|
----------------------------|-------------------------------|-----|---------------------------|----------------------------|


   S E  E  S E   S E  E  S  E      S S S S  S S S S S S  S S S S  S S    S S S  S S S S  S S S  S S S S  S S  
-------------------------7-----|---------7--------7--------8--------8-|------7-10-----7-10--------8--------8-|
-----------7---------------10--|-------8--------8-----7-10-----7-10---|----8--------8--------7-10-----7-10---|
-----7--9----7-----7--9--------|-----9--------9-----7--------7--------|--9--------9--------7--------7--------|
--10------------10-------------|--10-------10-------------------------|--------------------------------------|
-------------------------------|--------------------------------------|--------------------------------------|
-------------------------------|--------------------------------------|--------------------------------------|


   S  S  S  S  S  S  S  S  S  S  S  S  S  S  S  S     S  S  S  S  S  S  S  S  S  S  S  S  S  S  S  S                           
-----------------------------12-15-19-22-20-19-15-|--19-20-19-15-19-17-------------17----------------|----|----|----|----|----|
-----------------------12-15----------------------|--------------------20-17-19-20----18-15----------|----|----|----|----|----|
--------------------12----------------------------|-----------------------------------------17-14-16-|----|----|----|----|----|
--------------12-14-------------------------------|--------------------------------------------------|----|----|----|----|----|
--------10-14-------------------------------------|--------------------------------------------------|----|----|----|----|----|
--10-12-------------------------------------------|--------------------------------------------------|----|----|----|----|----|


            E  E.  E.  Q    Q     3x
----|----|------------------------||
----|----|------------------------||
----|----|-----9---9-------------*||
----|----|-----9---9-------------*||
----|----|-----7---7--------------||
----|----|------------------------||

Bass

     E  E   S E.   E.  E.  E     E  E   S E.  E  E.  E.     E  E   S E.   E.  E.  E     E  E.  E.  E  E  E  E   
G||---------------------------|------------------7---9---|---------------------------|-------------------------|
D||--------------------7---8--|--------------------------|--------------------7---8--|-------------------------|
A||--7--7--10-7---10----------|--7--7--10-7--------------|--7--7--10-7---10----------|-----7---7---------------|
E||---------------------------|--------------------------|---------------------------|-------------------------|


    E  E   S E  E   S  E  E  E     E  E  E   S E  S  E.   E.     E  E   S E  E   S  E  E  E     E  E  E   S E  S  E.   E.   
|-------------------------------|-----------------------------|------------------------------|-----------------------------|
|*------------------------------|-----------------------------|------------------------------|-----------------------------|
|*-----7--10-7------------7-----|--------7--10-7--------------|-----7--10-7------------7-----|--------7--10-7--------------|
|---0-----------7--10-11-----7--|--0--0-----------7-10---11---|--0-----------7--10-11-----7--|--0--0-----------7-10---11---|


  E  E   S E  E   S  E  E  E     E  E  E   S E  S  E.   E.     E  E   S E  E   S  E  E  E     E  E  E   S E  S  E.   E.   
------------------------------|-----------------------------|------------------------------|-----------------------------|
------------------------------|-----------------------------|------------------------------|-----------------------------|
-----7--10-7------------7-----|--------7--10-7--------------|-----7--10-7------------7-----|--------7--10-7--------------|
--0-----------7--10-11-----7--|--0--0-----------7-10---11---|--0-----------7--10-11-----7--|--0--0-----------7-10---11---|


  E  S  S  S E  S  E   S S S E  S    E  S  S  S E  S  E   S S S E  S    E  E   S E  E   S  E  E  E   
-------------------------7--------|-------------------------7--------|------------------------------|
-----9-10-------------11---7------|-----9-10-------------11---7------|------------------------------|
----------10-7---------------9----|----------10-7---------------9----|-----7--10-7------------7-----|
--8-------------9-10------------9-|--8-------------9-10------------9-|--0-----------7--10-11-----7--|


  S S S S S  E  E  S  E  E   E      E   S S S E  S  E   S S S E  S    E  S  S  S E  S E  S  S  S E  S  
------------10------------------|---------7---------------7--------|----------------------------------|
-------------------------7------|------10---7----------10---7------|-----9-10------------9-10---------|
----7-8---8-----8--8-10---------|-------------8--7------------8--7-|----------10-7------------10-7----|
--0-----8-------------------10--|--10--------------10--------------|--8-------------7-8-------------7-|


  E  S S S E  S E  S S S E  S    S S S S S E  S S S E  E  E     S E  E  E  E  E  S S S S S    S  E   E  E  E  E  S S S S S  
------------------------------|----3-4-----4-----------4-----|----0--1--2--4--7--4-7-4-7-9-|------------------7----7---7-9-|
-----5-7-----------5-7--------|------------------------------|--2--------------------------|------------7--9-----9---9-----|
---------7-------------7------|--------2-2----2-2-2-2-----2--|-----------------------------|--7-10--11---------------------|
--5--------8--1-5--------8--1-|--L---------------------------|-----------------------------|-------------------------------|


  S  E   E  E  E  E  S S S S S    E  E.  E.  E  E  E  E   3x
------------------7----7---7-9-|--------------------------||
------------7--9-----9---9-----|-------------------------*||
--7-10--11---------------------|-----7---7---------------*||
-------------------------------|--------------------------||




Duration Legend
---------------
W - whole
H - half
Q - quarter
E - 8th
S - 16th
T - 32nd
. - note dotted


Tablature Legend
----------------
L - tied note
g - grace note
~ - vibrato
Login or Register to remove this ad.