Navi Clash (Mega Man Battle Chip Challenge) Bass/Guitar Tab

Submitted: Nov 13, 2009 by Jacob31593 (Last updated: Apr 05, 2010)

0
Download | Listen
Game: Mega Man Battle Chip Challenge
Composer(s): Yoko Shimomura, Ippo Yamada
Style: 2 or more instruments, Alternate picking, Transcription
Series: Mega Man

AutoScroll: Slow | Medium | Fast

Navi Clash from Mega Man Battle Chip Challenge
Composed by Yoko Shimomura/Ippo Yamada
Tabbed by Jacob31593
Nov. 13th 2009

Tabbed for 3 guitars and one bass. Here is the lead, the rest is in the gpro file.

201 BPM

      E   E   E   S   S  E   E   E   E     H         S   S  E   E   E   
E||--------------15s-16-15--------------|------------------------------|
B||----------13-------------16------13--|--L--------12s-13---------13--|
G||*-----13---------------------15------|------------------15--13------|
D||*------------------------------------|------------------------------|
A||-------------------------------------|------------------------------|
E||-------------------------------------|------------------------------|


  Q     E   Q     E   S   S  E     W                   E   E   E   E   S   E.   E   E   
--------------------------------|-------------------|----------------------------------|
--L----14--16--------13s-14-13--|--L----------------|-----------------13s-14-----------|
--------------------------------|-------------------|---------13---------------13--15--|
-----------------15-------------|-------------------|-----15------15-------------------|
--------------------------------|-------------------|----------------------------------|
--------------------------------|-------------------|----------------------------------|


  Q     E   Q     E  E   E     E   S   H        Q    S    W                 
----------------------------|--------------------------|-------------------|
----------------------------|-----12s-13--------L----L-|-------------------|
--L----13--------13-----15--|--------------------------|-------------------|
-----------17---------------|--------------------------|-------------------|
----------------------------|--------------------------|-------------------|
----------------------------|--------------------------|-------------------|


  E   E   E   S   S  E   E   E   E     H         S   S  E   E   E   
-------------15s-16-15--------------|------------------------------|
---------13-------------16------13--|--L--------12s-13---------13--|
-----13---------------------15------|------------------15--13------|
------------------------------------|------------------------------|
------------------------------------|------------------------------|
------------------------------------|------------------------------|


  Q     E   Q     E   S   S  E     W                   E   E   E   E   S   E.   E   E   
--------------------------------|-------------------|----------------------------------|
--L----14--16--------13s-14-13--|--L----------------|-----------------13s-14-----------|
--------------------------------|-------------------|---------13---------------13--15--|
-----------------15-------------|-------------------|-----15------15-------------------|
--------------------------------|-------------------|----------------------------------|
--------------------------------|-------------------|----------------------------------|


  Q     E   Q     E  E   E     E   S   H        Q    S    W                 
----------------------------|--------------------------|-------------------|
----------------------------|--------------------------|-------------------|
--L----13--------13---------|--------------------------|-------------------|
-----------17-----------17--|-----14s-15--------L----L-|-------------------|
----------------------------|--------------------------|-------------------|
----------------------------|--------------------------|-------------------|


   S   E.   E   Q     E   E   E      Q.      Q.      Q        S   E.   E   H        E   
--12s-13-------------------------|--13------15------16----|--15s-16---15--13--------L--|
-----------14----------------14--|------------------------|----------------------------|
---------------13--------13------|------------------------|----------------------------|
---------------------15----------|------------------------|----------------------------|
---------------------------------|------------------------|----------------------------|
---------------------------------|------------------------|----------------------------|


  W                    S   E.   E   Q     E   E   E      Q.      Q.      Q       W                 
-------------------|--12s-13-------------------------|--13------15------13----|-------------------|
-------------------|-----------14----------------14--|------------------------|-------------------|
-------------------|---------------13--------13------|------------------------|-------------------|
-------------------|---------------------15----------|------------------------|-------------------|
-------------------|---------------------------------|------------------------|-------------------|
-------------------|---------------------------------|------------------------|-------------------|


  W                    S   E.   E   Q     E   E   E      Q.      Q.      Q     
-------------------|--12s-13-------------------------|--13------15------16----|
-------------------|-----------14----------------14--|------------------------|
-------------------|---------------13--------13------|------------------------|
-------------------|---------------------15----------|------------------------|
-------------------|---------------------------------|------------------------|
-------------------|---------------------------------|------------------------|


   S   E.   E   H        E     W                    S   E.   E   Q     E   E   E   
--15s-16---15--13--------L--|-------------------|--12s-13-------------------------|
----------------------------|-------------------|-----------14----------------14--|
----------------------------|-------------------|---------------13--------13------|
----------------------------|-------------------|---------------------15----------|
----------------------------|-------------------|---------------------------------|
----------------------------|-------------------|---------------------------------|


                                              |---3---|                                             
   Q.      Q.      Q         H.           E   S   S   S     H.           E  E     W                 
--13------15------16s----|--18------------L--16h-18p-16-|--15------------L-----|-------------------|
-------------------------|------------------------------|----------------------|-------------------|
-------------------------|------------------------------|----------------------|-------------------|
-------------------------|------------------------------|----------------------|-------------------|
-------------------------|------------------------------|----------------------|-------------------|
-------------------------|------------------------------|----------------------|-------------------|


  W                   W                   W                 4x
-------------------|-------------------|--------------------||
-------------------|-------------------|--------------------||
-------------------|-------------------|-------------------*||
-------------------|-------------------|-------------------*||
-------------------|-------------------|--------------------||
-------------------|-------------------|--------------------||




Duration Legend
---------------
W - whole
H - half
Q - quarter
E - 8th
S - 16th
T - 32nd
X - 64th
. - note dotted
|-n-|  - n-tuplets


Tablature Legend
----------------
L - tied note
h - hammer on
p - pull off
s - legato slide
Login or Register to remove this ad.