Ads

Pirate Man (Mega Man and Bass) Bass Tab

Submitted: Sep 30, 2012 by mequint

5
Average: 5 (1 vote)
Download | Listen
Game: Mega Man and Bass
Composer(s): Naoshi Mizuta, Akari Kaida, Kirikiri-chan
Style: Transcription
Series: Mega Man

AutoScroll: Slow | Medium | Fast
Mega Man and Bass - Pirate Man
Composed by: Toshihiko Horiyama, Naoshi Mizuta, Akari Kaida
Tabbed by: Mike Q.
Date: September 29, 2012

Bass

G----------------------------------------------------------------
D----------------------------------------------------------------
A----------------------------------------------------------------
E-4-4-4-4-4-4-4-4-4-4-4-4-4-4-4-4-6-6-6-6-6-6-6-6-6-6-6-6-6-6-6-6

G----------------------------------------------------------------
D----------------------------------------------------------------
A----------------------------------------------------------------
E-4-4-4-4-4-4-4-4-4-4-4-4-4-4-4-4-6-6-6-6-6-6-6-6-6-6-6-6-6-6-6-6

G----------------------------------------------------------------
D----------------------------------------------------------------
A----------------------------------------------------------------
E-3-3-3-3-3-3-3-3-3-3-3-3-3-3-3-3-8-8-8-8-8-8-8-8-8-8-8-8-8-8-6-6

G----------------------------------------------------------------
D----------------------------------------------------------------
A----------------------------------------------------------------
E-4-4-4-4-4-4-4-4-4-4-4-4-4-4-4-4-6-6-6-6-6-6-6-6-6-6-6-6-6-6-6-6

G----------------------------------------------------------------
D----------------------------------------------------------------
A----------------------------------------------------------------
E-3-3-3-3-3-3-3-3-3-3-3-3-3-3-3-3-8-8-8-8-8-8-8-8-8-8-8-8-6-6-6-6

G----------------------------------------------------------------
D----------------------------------------------------------------
A----------------------------------------------------------------
E-4-4-4-4-4-4-4-4-4-4-4-4-4-4-4-4-3-3-3-3-3-3-3-3-3-3-3-3-3-3-3-3

G----------------------------------------------------------------
D---------------------------------1-1-1-1-1-1-1-1---------5-5-5-5
A-----------------1-1-1-1-1-1-1-1-----------------5-5-5-5--------
E-1-1-1-1-1-1-1-1------------------------------------------------

G----------------------------------------------------------------
D----------------------------------------------------------------
A----------------------------------------------------------------
E-4-4-4-4-4-4-4-4-4-4-4-4-4-4-4-4-3-3-3-3-3-3-3-3-3-3-3-3-3-3-3-3

G----------------------------------------------------------------
D---------------------------------5-5-5-5-5-5-5-5-5-5-5-5-5-5-5-5
A-----------------5-5-5-5-5-5-5-5--------------------------------
E-1-1-1-1-1-1-1-1------------------------------------------------

(repeat)
Login or Register to remove this ad.