Ads

Intro Stage (Mega Man and Bass) Bass Tab

Submitted: Nov 16, 2009 by soundsandstuff (Last updated: Nov 17, 2009)

5
Average: 5 (2 votes)
Download | Listen
Game: Mega Man and Bass
Composer(s): Naoshi Mizuta, Akari Kaida, Kirikiri-chan
Style: Transcription
Series: Mega Man

Click here for a video example.

AutoScroll: Slow | Medium | Fast
Mega Man and Bass (Rock Man and Forte)
Platform: Super Famicom (Japan), Game Boy Advance
Developer: Capcom
Composed by: Kirikiri-chan, Naoshi Mizuta, Akari Kaida

Bass Guitar Tab Created By: soundsandstuff www.youtube.com/user/soundsandstuff
Completed on 11/16/09


Read: Before playing, tune the fourth string on your bass guitar down to D.

======================================= A

G|-------------------------------|
D|-------------------------------|
A|-------------------------------|
D|--10--8-10----8-10---8--10--8--|


G|------------------------------|
D|------------------------------|
A|------------------------------|
D|--10--8-10----10----5--5-8-5--|


G|-------------------------------|
D|-------------------------------|
A|-------------------------------|
D|--10--8-10----8-10---8--10--8--|


G|------------------------------|
D|------------------------------|
A|------------------------------|
D|--10--8-10----10----5--5-8-5--|

================================================ B

G|-------------------------------|
D|-------------------------------|
A|-------------------------------|
D|--10--8-10----8-10---8--10--8--|


G|------------------------------|
D|------------------------------|
A|------------------------------|
D|--10--8-10----10----5--5-8-5--|


G|-------------------------------|
D|-------------------------------|
A|-------------------------------|
D|--10--8-10----8-10---8--10--8--|


G|-------------------------------|
D|-------------------------------|
A|---------------10--------------|
D|--12--10-12----------5--5-8-5--|

==========                 ===============

G|-------------------------------|
D|-------------------------------|
A|-------------------------------|
D|--10--8-10----8-10---8--10--8--|


G|------------------------------|
D|------------------------------|
A|------------------------------|
D|--10--8-10----10----5--5-8-5--|


G|-------------------------------|
D|-------------------------------|
A|-------------------------------|
D|--10--8-10----8-10---8--10--8--|


G|-------------------------------|
D|-------------------------------|
A|---------------10--------------|
D|--12--10-12----------5--5-8-5--|

======================================================== C

G|-----------------------------|
D|-------3----3----------------|
A|-----3----3-------3-----3----|
D|--3-----------------3-3---3--|


G|-------8--6------------------|
D|-----6------6-----6-----6----|
A|--4-----------------4-4---4--|
D|-----------------------------|


G|-------7----5----------------|
D|-----5----5-------5----------|
A|--3-----------------3-3-1-1--|
D|-----------------------------|


G|-----------------------------|
D|-------7----7----------------|
A|--0--7----7-------7----------|
D|--------------------7-7-7-7--|

---------                -------------

G|-----------------------------|
D|-------8----6----------------|
A|-----6----6-------6-----6----|
D|--6-----------------6-6---6--|


G|-----------------------------|
D|-------5----3----------------|
A|-----3----3-------3-----3-3--|
D|--3-----------------3-3------|


G|-----------------------------|
D|-------5----3----------------|
A|-----3----3-------3-----6-6--|
D|--3-----------------3-3------|


G|-------9------------------|
D|-----7--------------------|
A|--5-------5---------------|
D|------------5-5--------8--|

======================================================================== D

G|-------------------------------|
D|-------------------------------|
A|-------------------------------|
D|--10--8-10----8-10---8--10--8--|


G|------------------------------|
D|------------------------------|
A|------------------------------|
D|--10--8-10----10----5--5-8-5--|


G|-------------------------------|
D|-------------------------------|
A|-------------------------------|
D|--10--8-10----8-10---8--10--8--|


G|---------------------------------|
D|---------------------------------|
A|-------------8-9-10--------------|
D|--12--10-12------------5--5-8-5--|

================================================================================== E

G|-------------------------------|
D|-------------------------------|
A|-------------------------------|
D|--10--8-10----8-10---8--10--8--|


G|----------------------------|
D|----------------------------|
A|----------------------10----|
D|--7--5-7----7----7--7----7--|


G|----------------------------|
D|----------------------------|
A|-------------------5-5------|
D|--6--5-6----5----5-----5-5--|

============================================================================================== F

G|---------------------------|
D|---------------------------|
A|---------------------------|
D|--3--1-3----1-3---1--3--1--|


G|--------------------------|
D|--------------------------|
A|--------------------------|
D|--3--1-3----3----1--3--1--|


G|---------------------------|
D|---------------------------|
A|---------------------------|
D|--3--1-3----1-3---1--3--1--|


G|----------------------------|
D|----------------------------|
A|----------------------------|
D|--3--1-3----3----1-3-3-4-4--|

---------                -------------

G|---------------------------|
D|---------------------------|
A|---------------------------|
D|--5--3-5----3-5---3--5--3--|


G|--------------------------|
D|--------------------------|
A|--------------------------|
D|--5--3-5----5----3--5--3--|


G|---------------------------|
D|---------------------------|
A|---------------------------|
D|--5--3-5----3-5---3--5--3--|


G|--------------------------|
D|--------------------------|
A|--------------------------|
D|--5--3-5----5----3--5--3--|

============================================================================================================== G

G|---------------------------|
D|---------------------------|
A|---------------------------|
D|--1--0-1----0-1---0--1--0--|


G|---------------------------|
D|---------------------------|
A|---------------------------|
D|--1--0-1----1----1--1-0-0--|


G|---------------------------|
D|---------------------------|
A|--3--1-3----1-3---1--3--1--|
D|---------------------------|


G|---------------------------|
D|---------------------------|
A|--3--1-3----3----3--3-1-1--|
D|---------------------------|

---------           ---------------

G|---------------------------|
D|---------------------------|
A|--0------------------------|
D|-----5-7----5-7---5--7--5--|


G|---------------------------|
D|---------------------------|
A|---------------------------|
D|--7--5-7----7----7--7-5-5--|


G|---------------------------|
D|---------------------------|
A|---------------------------|
D|--3--1-3----1-3---1--3--1--|


G|-----------------------------|
D|-------5----5-5--------------|
A|-----8----8------------------|
D|--5----------------5--5-8-5--|

=========================================== Repeat from the start

Notes:

- Thank you for playing!
Login or Register to remove this ad.