Ads

Dr. Wily's Castle 1 (Mega Man 9) Guitar Tab

Submitted: Oct 20, 2016 by ltm_1988

0
Download | Listen
Game: Mega Man 9
Composer(s): Ippo Yamada, Yu Shimoda, Ryo Kawakami, Hiroki Isogai
Style: Arrangement, Fingerstyle
Series: Mega Man

AutoScroll: Slow | Medium | Fast
Dr. Wily's Castle 1
Mega Man 9
Ippo Yamada, Ryo Kawakami, Yu Shimoda, Hiroki Isogai
ltm_1988
10/10/2016

MIDI slowed from game speed

    E   S S E   S S E   E   E   E     E   E   E   S S E   E   E   E  
E||---------0---1-------3---1-------|-----------------0---1---0-------|
B||-----3-----------------------5~--|-------------1-3-------------3~--|
G||-2-------------------------------|-----------------0---------------|
D||-0---0-0-0---0-0-0---------------|---------2---------------2-------|
A||---------------------0-------3---|-----3-------3-------3-------5~--|
E||-------------------------0-------|---------------------------------|

    E   E   E   Q       E   E   E     E   S S E   Q       S S E   E  
E||-----------------------------1~--|-----0---------------------------|
B||---------------------------------|---------3---1-----------1-------|
G||-----------------------------2~--|---------------------0-------2~--|
D||-------------0-----------0-------|---------0-------------------0---|
A||---------0-----------0-----------|-1-----------3-------0-0---------|
E||-----1---------------------------|-----1-1-----------------0-------|

    E   S S E   S S E   E   E   E     E   E   E   S S E   E   E   E  
E||---------0---1-------3---1-------|-----------------0---1---0-------|
B||-----3-----------------------5~--|-------------1-3-------------3~--|
G||*--------------------------------|-----------------0---------------|
D||*----0-0-0---0-0-0---------------|---------2---------------2-------|
A||---------------------0-------3---|-----3-------3-------3-------5~--|
E||-------------------------0-------|---------------------------------|

    E   E   E   Q       E   E   E     E   S S E   Q       S S S S E  
E||-----------------------------1~--|-----0---------------------------|
B||---------------------------------|---------3---1-------------------|
G||-----------------------------2~--|---------------------0---2---3~--|
D||-------------0-----------0-------|---------0-----------------------|
A||---------0-----------0-----------|-1-----------3-------------------|
E||-----1---------------------------|-----1-1-------------0-0-1-1-3---|

    E   S S E   S S E   S S E   E     E   S S E   S S E   S S E   S S
E||-------------------------1-------|-------------------------0-------|
B||-----------------------------5~--|---------------------3-------1~--|
G||---------------------------------|---------------------------------|
D||-----------------0---3-----------|---------------------------------|
A||---------1-------------------3---|-----3-3-----3-3-----3-3-3---0-0-|
E||-----3-3-----3-3-----3-3-1-------|---------0-------3---------------|

    E   S S E   S S E   S S E   S S   E   S S E   S S E   S S E   E  
E||-------------------------0-------|---------------------------------|
B||-----------------------------3~--|---------------------------------|
G||---------------------2-----------|-------------------------2-------|
D||-----------------------------0-0-|-0---0-0-----0-0-----0-0-0---5~--|
A||-0---0-0-3---0-0-----0-0-0-------|-----------------0---------------|
E||-----------------0---------------|---------1-------------------0---|

    E   S S E   S S E   S S E   E     E   S S E   S S E   S S E   E  
E||---------------------------------|---------------------------------|
B||---------------------------------|---------------------------------|
G||-------------------------0---2~--|---------------------------------|
D||---------------------3---0-------|-------------------------2---5~--|
A||-----------------1-----------0---|-----0-0-0---0-0-4---0-0-0---5~--|
E||-----0-0-3---0-0-----0-0---------|---------0-------0---------------|

    E   E   E   E   E   E   E   E     E   E   E   E   E   E   E   E  
E||---------------------------------|---------------------------------|
B||---------------------------------|---------------------------------|
G||-------------------------0---2~--|---------------------0---2---3~--|
D||---------------------3-----------|---------2-------4---------------|
A||-----0---5---0---7---5---4---5~--|-----0-------0-------0---3---5~--|
E||---------------------------------|---------------------------------|

    E   S S E   S S E   S S E   E     E   S S E   S S E   S S E   E  
E||-------------------------1-------|-------------------------0-------|
B||-----------------------------5~--|---------------------3-------2~--|
G||---------------------------------|---------------------------------|
D||-----------------0---3-----------|---------------------------------|
A||---------1-------------------3---|-----3-3-----3-3-----3-3-3---0---|
E||-3---3-3-----3-3-----3-3-3-------|---------0-------3---------------|

    E   S S E   S S E   S S E   E     E   S S E   S S E   S S E   E  
E||-----------------------------1~--|---------------------3---5---5~--|
B||---------------------3---5-------|-----------------6---------------|
G||---------------------------------|---------------------------------|
D||-----------------------------0---|-0---0-0-----0-0-----0-0-0-------|
A||-0---0-0-----0-0-----0-0-0-------|-----------------0-----------6---|
E||---------0-------3---------------|---------1-----------------------|

    Q       E   E   E   E   E   E     E   E   E   E   E   E   E   E  
E||---------6-------------------5~--|-----5---6---3-------1---3---5~--|
B||-------------8~------------------|-------------------------5-------|
G||---------0---------------8-------|---------0-------3---------------|
D||-3---------------8---------------|-------------2-------2-----------|
A||-------------6-------6-------7~--|-----7---------------------------|
E||---------------------------------|-----------------------------5~--|

    Q       E   E   E   E   E   E     E   E   E   E   E   E   E   E  
E||---------------------------------|-------------0---3---1---0-------|
B||---------------------------------|---------2-------------------6~--|
G||-------------------------0-------|-----2---------------------------|
D||-----------------2---------------|-----------------2---0-----------|
A||---------4---0-------0-------0---|---------0---4-----------4---5~--|
E||---------------------------------|-----0---------------------------|

    E   E   E   E   E   E   E   E     E   E   E   E   E   E   E   E  
E||---------------------0-----------|---------------------------------|
B||-------------------------6---8~--|-------------------------8---10~-|
G||---------------------------------|---------------------10----------|
D||-------------------------7-------|-------------------------7-------|
A||-----0---7---0---8---0-----------|-----0---7---0---8---0-----------|
E||-----------------------------10~-|-----------------------------10~-|

    E   E   E   E   E   E   E   E     E   E   E   Q       E   E   E  
E||---------------------------------|-----10------------------0-------|
B||-----------------------------10--|---------10--8-------------------|
G||---------------------------------|---------------------10------10~-|
D||-------------------------7-------|-8---8---8-------------------0---|
A||-----0---7---0---8---0-------8~--|---------------------------------|
E||---------------------------------|-------------8-------8---8-------|

    E   E   E   E   E   E   E   E     E   E   E   E   E   E   E   E  
E||---------------------0-----------|---------------------------------|
B||-----------------------------8~--|-------------------------8---10~-|
G||-------------------------10------|---------------------10----------|
D||-------------------------7-------|-------------------------7-------|
A||-----0---7---0---8---0-----------|-----0---7---0---8---0-----------|
E||-----------------------------10~-|-----------------------------10~-|

    E   E   E   E   E   E   E   E     E   E   E   Q       E   E   E  
E||---------------------------------|-----10------------------0---1~--|
B||-----------------------------10--|---------10--8-------------------|
G||---------------------------------|---------------------10----------|
D||-------------------------7-------|-8---8---8-----------------------|
A||-----0---7---0---8---0-------8~--|-----------------------------1---|
E||---------------------------------|-------------8-------8---8-------|

    E   S S E   S S E   S S E   E     E   S S E   Q       S S E   E  
E||-------------------------1---0---|-------------------------0-------|
B||---------------------------------|-----3-------2---------------3~--|
G||---------------------3-----------|---------------------2-----------|
D||---------------------------------|-----------------------------0---|
A||-----1-1-1---1-1-1---1-1-1---3---|-----3-3-3---0-------0-0-3-------|
E||---------------------------------|---------------------------------|

    E   E   E   E   E   E   E   E     E   E   E   E   E   E   E   E  
E||---------------------------------|---------------------------------|
B||---------------------------------|---------------------------------|
G||---------------------------------|-----------------------------2~--|
D||-----------------------------0---|-----2/-/--------0/--0/--0/--0---|
A||-----0-------0-------0---0-------|---------0/-/--------------------|
E||---------0-------1---------------|-------------1/-/----------------|

    E   S S E   S S E   E   E   E     E   E   E   S S E   E   E   E  
E||---------0---1-------3---1-------|-----------------0---1---0-------|
B||-----3-----------------------5~--|-------------1-3-------------3~--|
G||---------------------------------|-----------------0---------------|
D||-----0-0-0---0-0-0---------------|---------2---------------2-------|
A||---------------------0-------3---|-----3-------3-------3-------5---|
E||-------------------------0-------|---------------------------------|

    E   E   E   Q       E   E   E     E   S S E   Q       S S E   E   x3 W
E||-----------------------------1~--|-----0---------------------------||-1-
B||---------------------------------|---------3---1-----------1-------||-3-
G||-----------------------------2~--|---------------------0-------2~-*||-2-
D||-------------0-----------0-------|---------0-------------------0--*||-0-
A||---------0-----------0-----------|-1-----------3-------0-0---------||---
E||-----1---------------------------|-----1-1-----------------0-------||---
Login or Register to remove this ad.