Login or Register to remove this ad.

Shade Man (Mega Man 7) Guitar Tab

Submitted: Mar 14, 2010 by Brainsick Fungus

4.666665
Average: 4.7 (3 votes)
Download | Listen
Game: Mega Man 7
Composer(s): Makoto Tomozawa, Yuko Takehara
Style: Alternate picking, Transcription
Series: Mega Man

AutoScroll: Slow | Medium | Fast
Shade Man
By Yuko Takehara and Makoto Tomozawa	
Mega Man 7
Tabbed by Brainsick Fungus
02/17/10

**Warning: Non-Standard Tuning**
(Tighten the first string so that it plays one fret higher)
(Loosen the second string so that it plays two frets lower)


F-0-5-0-8-0-12-0-10-0-8-0-10-0-12-0--0-4-0-7-0-12-0-10-0-8-0-10-0-12-0----------|
A-------------------------------------------------------------------------------|
G-------------------------------------------------------------------------------|
D-------------------------------------------------------------------------------|
A-------------------------------------------------------------------------------|
E-------------------------------------------------------------------------------|

F-0-3-0-7-0-10-0-8-0-7-0-8-0-3-0----1---3---5---8---7---5---3-------------------|
A---------------------------------4---4---4---4---6---6---6---6-----------------|
G-------------------------------------------------------------------------------|
D-------------------------------------------------------------------------------|
A-------------------------------------------------------------------------------|
E-------------------------------------------------------------------------------|

F-0-5-0-8-0-12-0-10-0-8-0-10-0-12-0--0-4-0-7-0-12-0-10-0-8-0-10-0-12-0----------|
A-------------------------------------------------------------------------------|
G-------------------------------------------------------------------------------|
D-------------------------------------------------------------------------------|
A-------------------------------------------------------------------------------|
E-------------------------------------------------------------------------------|

F-0-3-0-7-0-10-0-8-0-7-0-8-0-3-0----1---3---5---8---7---8---10------------------|
A---------------------------------4---4---4---4---6---6---6----6----------------|
G-------------------------------------------------------------------------------|
D-------------------------------------------------------------------------------|
A-------------------------------------------------------------------------------|
E-------------------------------------------------------------------------------|

F-----------------------------------------0------0------------------------------|
A----3-------6--3----------3-----------------6-4---6--3--------------3----------|
G-3-----3-1----------1--3-----2--------------------------1-------1-3---2--------|
D-----------------4--------------3--1--3--------------------3-4-----------------|
A-------------------------------------------------------------------------------|
E-------------------------------------------------------------------------------|

F-------------------------------------------------------------------------------|
A-------------------------------------------------------------------------------|
G----------------------------------1---------1------1-3-1-----------------------|
D-3--1---------------1------3---4------4--3-----4---------4-3-4-3-1-------------|
A-------3--1---3--4-----3-------------------------------------------3-1---------|
E-------------------------------------------------------------------------------|

F-----------------------------0-------------------------------------------------|
A------------------------3-6----6-3-4-3--------3--------------------------------|
G---------------------2-----------------3-1-3-----1-----------------------------|
D------------------3------------------------------------------------------------|
A-3-4-3-6-4-3-4-3---------------------------------------------------------------|
E-------------------------------------------------------------------------------|
Login or Register to remove this ad.

2 comments on Shade Man

3000th tab submitted.

3000th tab submitted. Congrats BSF!!!

Awesome

Here's lookin' to tab #4000! Go Gametabs!
Shade Man's stage is one damn fine song and I find it to be great fun to play to boot. I'm quite happy this song got the 3000th spot as I feel it has a lot of merit. I hope Mega Man and Non-Mega Man fans alike can enjoy this one.