Ads

Yamato Man (Mega Man 6) Guitar Tab

Submitted: Apr 21, 2011 by Brainsick Fungus

5
Average: 5 (2 votes)
Download | Listen
Game: Mega Man 6
Composer(s): Yuko Kadota
Style: Transcription
Series: Mega Man

AutoScroll: Slow | Medium | Fast
Yamato Man
By Yuko Takehara	
Mega Man 6
Tabbed by Brainsick Fungus
04/20/11


			 
e-------------------------------------------------------------------------------|
B----------------------11h12----------------------------------------------------|
G----11-13-13-13-11-13-------13-11-13-------------------------------------------|
D-13----------------------------------------------------------------------------|
A-------------------------------------------------------------------------------|
E-------------------------------------------------------------------------------|

e----------------------11h12-11----11-------------------------------------------|
B----12-14-14-14-12-14----------14----------------------------------------------|
G-13----------------------------------------------------------------------------|
D-------------------------------------------------------------------------------|
A-------------------------------------------------------------------------------|
E-------------------------------------------------------------------------------|

e-------------------------------------------------------------------------------|
B----------------------11h12----------------------------------------------------|
G----11-13-13-13-11-13-------13-11-13-------------------------------------------|
D-13----------------------------------------------------------------------------|
A-------------------------------------------------------------------------------|
E-------------------------------------------------------------------------------|

e-------------------------------------------------------------------------------|
B----12-14-12-14-12-14-15-16----------------------------------------------------|
G-13-------------------------15----13-------------------------------------------|
D-------------------------------16----------------------------------------------|
A-------------------------------------------------------------------------------|
E-------------------------------------------------------------------------------|

e------------------------------------------------14--18--21-19-18---------------|
B----------------12-12-11-12-11--------------11---------------------------------|
G-13-13-13-11-13----------------13-11----11-------------------------------------|
D-------------------------------------11----------------------------------------|
A-------------------------------------------------------------------------------|
E-------------------------------------------------------------------------------|
-
e----------------------------------------------------14--21-26------------------|
B----------------12-12-11-12-11------------------14-----------------------------|
G-13-13-13-11-13----------------13-11--------11---------------------------------|
D-------------------------------------13-11-------------------------------------|
A-------------------------------------------------------------------------------|
E-------------------------------------------------------------------------------|

e-0--4--7--6h7p6------6-7--9--11--9h11p9----------------------------------------|
B----------------7--7--------------------9-9-12-11--11-11-12-11-9---------------|
G-----------------------------------------------------------------11-8----------|
D-------------------------------------------------------------------------------|
A-------------------------------------------------------------------------------|
E-------------------------------------------------------------------------------|

e-------------11h12p11-------11-------------------------------------------------|
B-11-12-14-14----------14-12----------------------------------------------------|
G-------------------------------------------------------------------------------|
D-------------------------------------------------------------------------------|
A-------------------------------------------------------------------------------|
E-------------------------------------------------------------------------------|

e----14-16-16-14----14------------------16-16----16-18h19p18-16-----------------|
B-16-------------16----16-14-16---16-19-------19--------------------------------|
G-------------------------------------------------------------------------------|
D-------------------------------------------------------------------------------|
A-------------------------------------------------------------------------------|
E-------------------------------------------------------------------------------|

e----14-16-16-14----14----------------------------------------------------------|
B-16-------------16----16-14-16-14-----------12-11-11-14-11---------------------|
G----------------------------------16-13--13----------------13-11-13~-----------|
D-------------------------------------------------------------------------------|
A-------------------------------------------------------------------------------|
E-------------------------------------------------------------------------------|
Login or Register to remove this ad.