Ads

Wind Man (Mega Man 6) Guitar Tab

Submitted: Feb 27, 2016 by ltm_1988

4
Average: 4 (1 vote)
Download | Listen
Game: Mega Man 6
Composer(s): Yuko Kadota
Style: Arrangement, Fingerstyle
Series: Mega Man

AutoScroll: Slow | Medium | Fast
Wind Man
Mega Man 6
Yuko Takehara
ltm_1988
11/16/2015

    Q       Q       Q       E   E     E   E   H               Q      
E||---------------------------------|---------------------------------|
B||-----------------3---------------|---------------------------------|
G||---------3-------3-------3-------|---------3~----------------------|
D||---------3---------------3---3---|-----3---3~----------------------|
A||-1---------------------------5---|-----5-------------------1-------|
E||---------------------------------|---------------------------------|

    Q       Q       Q       E   E     E   E   H               Q      
E||---------------------------------|---------------------------------|
B||-----------------1---------------|---------------------------------|
G||---------1-------1-------1-------|---------1~----------------------|
D||---------1---------------1---1---|-----1---1~----------------------|
A||-----------------------------3---|-----3---------------------------|
E||-4-------------------------------|-------------------------4-------|

    Q       Q       Q       E   E     E   E   H               Q      
E||---------------------------------|---------------------------------|
B||---------------------------------|---------------------------------|
G||-----------------3---------------|-------------------------3-------|
D||---------4-------4-------4-------|---------4~--------------4-------|
A||---------4---------------4---4---|-----4---4~----------------------|
E||-2---------------------------6---|-----6-------------------2-------|

    H               H                 Q       Q       Q       Q      
E||---------------------------------|---------------------------------|
B||---------------------------------|-----------------4~--------------|
G||---------------------------------|-5~------------------------------|
D||-----------------6~--------------|-----------------6~--------------|
A||-6~--------------6~--------------|-6~------------------------------|
E||-4~--------------4---------------|-4-------4-------4-------4-------|

    E   Q       Q       E   E   E     Q       E   E   E   E   E   E  
E||---------------------------------|---------------------------------|
B||-1---3-------3-------------------|---------3-----------------------|
G||*--------------------3-----------|-3---------------3---------------|
D||*----------------------------3---|-------------------------3-------|
A||-1-----------1-------------------|-1-----------1-------------------|
E||---------------------1---4---1---|---------------------1---4---1---|

    Q.          Q       E   E   E     Q       E   E   E   E   E   E  
E||---------------------------------|---------------------------------|
B||-------------1-----------4~------|---------3-------1---------------|
G||-1-------------------------------|-------------------------3-------|
D||---------------------1-------1---|---------------------1-------1---|
A||---------------------------------|---------------------------------|
E||-4-----------4-----------1-------|-4-----------4-----------1-------|

    E   Q       Q       E   E   E     Q       E   E   E   E   E   E  
E||---------------------------------|---------------------------------|
B||-1---2-------2-------------------|---------2-------1---------------|
G||---------------------3-----------|-3-----------------------3-------|
D||-------------------------1---4---|-------------------------1-------|
A||---------------------4-------4---|---------------------4-------4---|
E||-2-----------2-------------------|-2-----------2-------------------|

    Q.          Q       E   E   E     E   E   E   E   E   E   E   E  
E||---------------------------------|---------------------------------|
B||---------------------------------|-----------------1-------4-------|
G||-1~------------------------------|-1-------3-------1-------5-------|
D||---------------------1-------1---|-1-------3-----------------------|
A||---------------------------------|---------------------------------|
E||-4-----------4-----------1-------|-----4-------4-------4-------4---|

    E   Q       Q       E   E   E     Q       E   E   E   E   E   E  
E||---------------------------------|---------------------------------|
B||-1---3-------3-------------------|---------3-----------------------|
G||---------------------3-----------|-3---------------3---------------|
D||-----------------------------3---|-------------------------3-------|
A||-1-----------1-------------------|-1-----------1-------------------|
E||---------------------1---4---1---|---------------------1---4---1---|

    Q.          Q       E   E   E     Q       E   E   E   E   E   E  
E||---------------------------------|---------------------------------|
B||-------------1-----------4~------|---------3-------1---------------|
G||-1-------------------------------|-------------------------3-------|
D||---------------------1-------1---|---------------------1-------1---|
A||---------------------------------|---------------------------------|
E||-4-----------4-----------1-------|-4-----------4-----------1-------|

    E   Q       Q       E   E   E     Q       E   E   E   E   E   E  
E||---------------------------------|---------------------------------|
B||-1---2-------2-------------------|---------1-------2-------4-------|
G||---------------------3-----------|-3-------------------------------|
D||-------------------------2---4---|-------------------------1-------|
A||---------------------4-------4---|---------------------4-------4---|
E||-2-----------2-------------------|-2-----------2-------------------|

    Q.          Q       E   E   E     Q.          Q       E   E   E  
E||-1~------------------------------|-------------------------1-------|
B||---------------------------------|-1~----------------------1-------|
G||---------------------------------|-2~------------------------------|
D||---------------------------------|---------------------------------|
A||---------------------0---3---0---|---------------------0---3---0---|
E||-1-----------1-------------------|-1-----------1-------------------|

    E   E   E   H               E     Q       E   E   Q       Q      
E||-1~------------------------------|-------------------------1-------|
B||---------------------------------|-4-------3-------4---------------|
G||-------------1~------------------|-0-------------------------------|
D||---------3-----------------------|---------3-------1-------0-------|
A||-----3---------------------------|---------------------------------|
E||-4-----------4-------------------|-4-----------4-------------------|

    E   E   E   Q.          Q         Q       E   E   Q       Q      
E||-1-------------------------------|---------------------------------|
B||-------------4-------------------|---------------------------------|
G||-------------------------3~------|---------------------------------|
D||---------1---5~----------3-------|-1-------0-----------------------|
A||-----1---------------------------|-----------------3-------1-------|
E||-3-----------3-------------------|-3-----------3-------------------|

    E   E   E   Q.          Q         Q       E   E   Q       Q      
E||-1-------------------------------|---------------------------------|
B||-------------4-------------------|-----------------4~--------------|
G||-------------------------3~------|---------------------------------|
D||---------1---4~----------3-------|-1-------------------------------|
A||-----1---------------------------|---------4-------3-------1-------|
E||-2-----------2-------------------|-2-----------2-------------------|

    E   E   E   E   E   E   E   E     Q       Q       Q       Q      
E||---------------------------------|---------------------------------|
B||-4-------3-------1-------3~------|-----------------3-------4-------|
G||---------------------------------|---------3-----------------------|
D||-------------0-----------0---3~--|---------3-------0-------0-------|
A||-1-------1---1-------1-----------|-1---------------1-------1-------|
E||-----1---------------------------|---------1-----------------------|

    E   E   E   H               E     Q       E   E   Q       Q      
E||-1~------------------------------|-------------------------1-------|
B||---------------------------------|-4-------3-------4---------------|
G||-------------1~------------------|-0-------------------------------|
D||---------3-----------------------|---------3-------1-------0-------|
A||-----3---------------------------|---------------------------------|
E||-4-----------4-------------------|-4-----------4-------------------|

    E   E   E   Q.          Q         Q       E   E   Q       Q      
E||-1-------------------------------|---------------------------------|
B||-------------4-------------------|---------------------------------|
G||-------------------------3~------|---------------------------------|
D||---------1---5~----------3-------|-1-------0-----------------------|
A||-----1---------------------------|-----------------3-------1-------|
E||-3-----------3-------------------|-3-----------3-------------------|

    E   E   E   Q.          Q         Q       E   E   Q       Q      
E||-1-------------------------------|---------------------------------|
B||-------------4-------------------|---------1-------2-------4-------|
G||-------------------------3~------|---------------------------------|
D||---------1---4~----------3-------|-1-------3-------1---------------|
A||-----1---------------------------|-------------------------3-------|
E||-2-----------2-------------------|-2-----------2-------------------|

    E   E   E   Q       E   E   E     E   E   E   H               E  
E||-1~------------------------------|---------------------------------|
B||---------------------------------|---------------------------------|
G||---------------------------------|-------------2~------------------|
D||-----------------------------3---|---------3-----------------------|
A||-0-------0---3-------0---3-------|-----3---------------------------|
E||-1---1-------1-----------1-------|-----1-------1-------------------|

    E   Q.          E   Q       E     E   Q       Q       E   E   E  
E||---------------------5-------6---|-5~------------------------------|
B||-8~------------------------------|-------------6~------------------|
G||-----------------------------0---|---------------------------------|
D||---------------------3-----------|-3~--3~----------------------7---|
A||-6~--6~----------6~----------6---|-------------8-------8---8-------|
E||---------------------------------|-------------8-------------------|

    E   Q       E   E   E   E   E     E   E   E   E   E   E   Q      
E||-5~----------------------8-------|-8-------6---------------5-------|
B||---------------------------------|-----------------8---------------|
G||-5-------------------------------|-0---0-------0-------0---0-------|
D||-4---4-------7~----------7-------|-8~----------------------0-------|
A||-----------------9---9-------9---|-------------5~------------------|
E||---------------------------------|---------------------------------|

    Q       E   E   E   E   E   E     E   E   E   E   E   E   Q      
E||-6-------6---6~------------------|---------6-------5-------6-------|
B||---------------------------------|-4-------4-------3-------4-------|
G||-------------------------0---3---|---------------------------------|
D||---------------------------------|---------------------------------|
A||-6~------6---6~--6~--6-----------|-6---6-------6-------6---6-------|
E||---------------------------------|---------------------------------|

    H               E   Q.            E   E   E   E   E   E   E   E   x3 W
E||-8~------------------------------|-13~-----------------------------||-10
B||---------------------------------|---------------------------------||-11
G||---------------------------------|--------------------------------*||---
D||-7~------------------------------|--------------------------------*||-12
A||-8---------------8---8-----------|---------------------------------||-13
E||---------------------------------|-13--13--13--13--13--13--13--13--||---
Login or Register to remove this ad.