Ads

Tomahawk Man (Mega Man 6) Guitar Tab

Submitted: Mar 02, 2016 by ltm_1988

5
Average: 5 (1 vote)
Download | Listen
Game: Mega Man 6
Composer(s): Yuko Kadota
Style: Arrangement, Fingerstyle
Series: Mega Man

AutoScroll: Slow | Medium | Fast
Tomahawk Man
Mega Man 6
Yuko Takehara
ltm_1988
2/29/2016

    E   E   E   Q       Q       E     S S Q       Q       E   Q      
E||-0-------------------------------|---------------------------------|
B||-----3---0---3---------------0---|---------------------------------|
G||---------------------2-----------|-----0-------2-------------------|
D||---------------------------------|---------------------4-----------|
A||---------------------------------|-------------------------5~------|
E||-0-------------------------------|-0-0---------0-------0-----------|

    Q.          Q       E   S S E     E   E   E   E   H              
E||---------------------------------|---------------------------------|
B||---------------------------------|-----0---0---0-------------------|
G||---------------------0-------2~--|-----------------4~--------------|
D||-2~----------4-------------------|---------------------------------|
A||-3-----------3-------3---3-3-----|-----2---2---2---2---------------|
E||---------------------------------|---------------------------------|

    E.    S E   Q       E   E   E     E.    E.    Q       E   E   E  
E||---------------------------------|---------------------------------|
B||---------------------------------|---------------------------------|
G||*4~------2---0-------------------|-------------------------2-------|
D||*--------------------2-------4---|-5~----------0-------0-------0---|
A||-------------------------2-------|---------------------------------|
E||-0-----0-----0-------0-------0---|-3-----3-----3-------3---2-------|

    E.    S E   Q       E   E   E     E.    E.    Q       E   E   E  
E||---------------------------------|---------------------------------|
B||---------------------------------|-------------------------0-------|
G||-4~------2---0-------------------|-------------2-------------------|
D||---------------------2-------4---|-5~------------------------------|
A||-------------------------2-------|---------------------------------|
E||-0-----0-----0-------0-------0---|-3-----3-----3-------3-------2---|

    E.    E.    E   E   S E.    E     E.    S E   Q       E   E   E  
E||---------------------------------|---------------------------------|
B||-1~--------------1-----0---------|-------------------------0-------|
G||-----------------------------2---|-4~------2---0-------0-----------|
D||---------------------------------|---------------------------------|
A||---------------------------------|---------------------------------|
E||-1-----1-----1-------1-------1---|-0-----0-----0-------0-------0---|

    E.    E.    Q       E   E   E     E.    E.    Q       E   E   E  
E||---------------------------------|---------------------------------|
B||---------------------0---1-------|-0-------------------------------|
G||-2~----------2~--------------2---|---------------------------------|
D||-0-----0-----0-------0-------0---|-------------4~--------------1---|
A||---------------------------------|-2-----2-----2-------2---4-------|
E||---------------------------------|---------------------------------|

    E.    S E   Q       E   E   E     E.    E.    Q       E   E   E  
E||---------------------------------|---------------------------------|
B||---------------------------------|---------------------------------|
G||-4~------2---0-------------------|-------------------------2-------|
D||---------------------2-------4---|-5~----------0-------0-------0---|
A||-------------------------2-------|---------------------------------|
E||-0-----0-----0-------0-------0---|-3-----3-----3-------3---2-------|

    E.    S E   Q       E   E   E     E.    E.    Q       E   E   E  
E||---------------------------------|---------------------------------|
B||---------------------------------|-------------------------0-------|
G||-4~------2---0-------------------|-------------2-------------------|
D||---------------------2-------4---|-5~------------------------------|
A||-------------------------2-------|---------------------------------|
E||-0-----0-----0-------0-------0---|-3-----3-----3-------3-------2---|

    E.    E.    E   E   S E.    E     E.    S E   Q       E   E   E  
E||---------------------------------|---------------------------------|
B||-1~--------------1-----0---------|-------------------------0-------|
G||-----------------------------2---|-4~------2---0-------0-----------|
D||---------------------------------|---------------------------------|
A||---------------------------------|---------------------------------|
E||-1-----1-----1-------1-------1---|-0-----0-----0-------0-------0---|

    E.    E.    Q       Q       E     E.    E.    Q       E   E   E  
E||---------------------------------|---------------------------------|
B||---------------------------------|---------------------------------|
G||-2~----------2~--------------2---|-1~------------------------------|
D||-0-----0-----0-------3-------0---|-------------------------2---0---|
A||---------------------5-----------|---------------------------------|
E||---------------------------------|-0-----0-----0-------0---0-------|

    E   E   E   E   E   S S E   E     E   E   E   E   E   S S E   E  
E||---------------------------------|---------------------------------|
B||---------------------------------|---------------------------------|
G||-----------------0---------------|---------------------------------|
D||-5~----------0---2---0-2-----4---|-5~--------------0---------------|
A||-3-------3---------------3-------|-2-------2---3-------3-3-2-------|
E||-----3-----------------------3---|-----3-----------------------3---|

    E   E   E   E   E   S S E   E     E.    S E   E   Q       Q      
E||---------------------------------|---------------------------------|
B||---------------------------------|-0-------------------------------|
G||-----------------0-----------0---|---------2-------0---------------|
D||-5~----------0---2---0-4---------|-------------------------4-------|
A||-3-------3---------------3-------|---------------------------------|
E||-----3-----------------------3---|-3-----3-----3-----------3-------|

    E   E   E   E   E   S S E   E     E   E   E   E   E   S S E   E  
E||---------------------------------|---------------------------------|
B||---------------------------------|---------------------------------|
G||-----------------0---------------|-----------------0-----------0---|
D||-5~----------0---2---0-2-----4---|-5~--------------0-----4---------|
A||-3-------3---------------3-------|-2-------2---3-------3---2-------|
E||-----3-----------------------3---|-----3-----------------------3---|

    E   E   E   S S E   S S E   E     E.    E.    E   Q       S S S S
E||---------------------------------|---------------------------------|
B||---------------------------------|-1-----1-----1-------------------|
G||-2~--------------2-----------2---|-----------------4~--------------|
D||---------------2-----0-2---------|-------------------------------1-|
A||-0-------0---3-----------3---0---|-2-----2-----2---2-------2-3-4---|
E||-----0---------------------------|---------------------------------|

    E   S S E   E   E   E   E   E     E   S E.    Q       E   E   E  
E||---------0-------2---3-------0---|---------------------------------|
B||-0---3-------0-----------3-------|-----0-------3-----------0-------|
G||---------------------------------|---------------------2-------0---|
D||---------------------------------|-----------------------------0---|
A||---------------------------------|---------------------------------|
E||-0-----0-----0-------0-------0---|-0-----0-----0-------0-----------|

    Q.          S S S E   E   E   S   E   S S E   Q       E   E   E  
E||---------------------------------|---------------------------------|
B||---------------------------------|---------------------0---1~------|
G||-------------0-------------------|---------0---2-------------------|
D||-4~----------2-4-2~--------------|-0---4-0-----0---------------0---|
A||-5~------------5-3-2---0-------2-|---------------------------------|
E||---------------------------3-----|---------------------2-----------|

    E   S S E   E   E   E   E   E     E   S E.    Q       E   E   E  
E||---------0-------2---3-------0---|-----7-------5-------3---2-------|
B||-0---3-------0-----------3-------|-----------------------------3---|
G||---------------------------------|---------------------------------|
D||---------------------------------|-----------------------------0---|
A||---------------------------------|---------------------------------|
E||-0-----0-----0-------0-------0---|-0-----0-----0-------0-----------|

    E.    E.    S S E   E.    S S S   E   S E.    Q       Q       E   x3 W
E||---------------0-2---------0-2-3-|-5---3-------2~------------------||-0-
B||-5~----------3-------------------|---------------------------------||-0-
G||---------------------------------|--------------------------------*||-0-
D||---------------------------------|-0-----0-----0---------------0--*||-2-
A||-3-----3-----3-------3-------3---|---------------------------------||-2-
E||---------------------------------|---------------------2-----------||-0-
Login or Register to remove this ad.