Ads

Tomahawk Man (Mega Man 6) Bass/Guitar Tab

Submitted: Apr 26, 2012 by slimjim441

0
Download | Listen
Game: Mega Man 6
Composer(s): Yuko Kadota
Style: 2 or more instruments, Transcription
Series: Mega Man

AutoScroll: Slow | Medium | Fast
Title: Tomahawk Man's Theme
Album: Mega Man 6
Copyright: Capcom
Tempo = 140
Electric Guitar

Legend
L - tied note
x - dead note
h - hammer on/pull off
b - bend
s - slide
~ - vibrato
g - ghost note
> - accentuated note
t - trill
M - palm mute
. - staccato
P - popping (bass)
S - slapping (bass)
+ - tapping
W - wide vibrato
< - fade in
w - whammy bar
= - tremolo picking
v - brush up
^ - brush down
V - pick stroke up
n - pick stroke down


E |--12-10----10---------------|----------------------------|
B |--------12-------10----12---|-----------10---------------|
G |----------------------------|-----12----------11---------|
D |----------------------------|--------------------12------|
A |----------------------------|----------------------------|
E |----------------------------|----------------------------|


----------------------------|----------------------------||
-----------------------10---|-----12-12-12-12------------||
--9--------11----12---------|----------------------------||
----------------------------|----------------------------||
----------------------------|----------------------------||
----------------------------|----------------------------||


---------------------------|----------------------------|
-12----10------------------|--------------------10------|
o---------12----9-----11---|--12------------------------|
o--------------------------|-----------12----12---------|
---------------------------|----------------------------|
---------------------------|----------------------------|


----------------------------|----------------------------|
--12----10------------------|-----------10-------12------|
-----------12----9-----11---|--12------------------------|
----------------------------|----------------------------|
----------------------------|----------------------------|
----------------------------|----------------------------|


----------------------------------------------------|
--13----------------------13-------12-------10------|
----------------------------------------------------|
----------------------------------------------------|
----------------------------------------------------|
----------------------------------------------------|


----------------------------|----------------------------|
--12----10----------12------|--10----------10-12-13-10---|
-----------12----12---------|----------------------------|
----------------------------|----------------------------|
----------------------------|----------------------------|
----------------------------|----------------------------|


----------------------------|----------------------------|
--12L------12L---------12---|--12----10------------------|
-----------11L---------11---|-----------12----9-----11---|
----------------------------|----------------------------|
----------------------------|----------------------------|
----------------------------|----------------------------|


----------------------------|----------------------------|
--------------------10------|--12----10------------------|
--12------------------------|-----------12----9-----11---|
-----------12----12---------|----------------------------|
----------------------------|----------------------------|
----------------------------|----------------------------|


----------------------------|
-----------10-------12------|
--12------------------------|
----------------------------|
----------------------------|
----------------------------|


----------------------------------------------------|
--13----------------------13-------12-------10------|
----------------------------------------------------|
----------------------------------------------------|
----------------------------------------------------|
----------------------------------------------------|


----------------------------|
--12----10----------12------|
-----------12----12---------|
----------------------------|
----------------------------|
----------------------------|


----------------------------------------------------|----------------|
--10----------------------10----------------10------|--9-------------|
-----------------------------------10---------------|-----------9----|
----------------------------------------------------|----------------|
----------------------------------------------------|----------------|
----------------------------------------------------|----------------|


----------------------------------------------------|
----------------------------------------------------|
--12----------------------12-------9--------11------|
----------------------------------------------------|
----------------------------------------------------|
----------------------------------------------------|


----------------------------|
----------------------------|
--12------------------------|
-----------12L---------12---|
----------------------------|
----------------------------|


----------------------------------------------------|----------------|
----------------------------------------------------|--12-10---------|
--12----------------------12-------11-------12------|--------12-11---|
----------------------------------------------------|----------------|
----------------------------------------------------|----------------|
----------------------------------------------------|----------------|


----------------------------------------------------|
----------------------------------------------------|
--12----------------------12-------9--------11------|
----------------------------------------------------|
----------------------------------------------------|
----------------------------------------------------|


----------------------------------------------------|
----------------------------------------------------|
--12----------------------12-------11-------12------|
----------------------------------------------------|
----------------------------------------------------|
----------------------------------------------------|


----------------------------------------------------|
--10----------------------10----------------10------|
-----------------------------------9----------------|
----------------------------------------------------|
----------------------------------------------------|
----------------------------------------------------|


----------------------------------------------------|
--13-------13-------13----12------------------------|
----------------------------------------------------|
----------------------------------------------------|
----------------------------------------------------|
----------------------------------------------------|


-----10-12----14-15-10-12---|-----------10---------------|
--12-------12---------------|-----12----------10-12------|
----------------------------|-----------------------12---|
----------------------------|----------------------------|
----------------------------|----------------------------|
----------------------------|----------------------------|


----------------------------------------------------|
----------------------------------------------------|
--11----------------12-11-9-------------------------|
----------------------------------------------------|
----------------------------------------------------|
----------------------------------------------------|


----------------------------|-----10-12----14-15-10-12---|
-----------10----12-13------|--12-------12---------------|
-----11-12------------------|----------------------------|
----------------------------|----------------------------|
----------------------------|----------------------------|
----------------------------|----------------------------|


-----19----17----15---------|
--------------------19-15---|
----------------------------|
----------------------------|
----------------------------|
----------------------------|


----------------------------------------------------|
--17----------------15-17-19L---------19-15-17-19---|
----------------------------------------------------|
----------------------------------------------------|
----------------------------------------------------|
----------------------------------------------------|


--17-15----14L---------14--|||
---------------------------|||
--------------------------o|||
--------------------------o|||
---------------------------|||
---------------------------|||



Bass

G |--9----|--9--9--------------9-----------9-------------------|
D |-------|----------------------------------------------------|
A |-------|----------------------------------------------------|
E |-------|----------------------------------------------------|

                                                     
----------------------------------------------------|
--10----------------10----------------10-10---------|
----------------------------------------------------|
----------------------------------------------------|

                              
----------------------------||
-----9--9--9--9-------------||
----------------------------||
----------------------------||

                                                    
-9--------9--------9-----------9-----------9-------|
o------------------------------------9-------------|
o--------------------------------------------------|
---------------------------------------------------|

                                                     
--12-------12-------12----------12----11------------|
--------------------------------------------12------|
----------------------------------------------------|
----------------------------------------------------|

                                                     
--9--------9--------9-----------9-----------9-------|
--------------------------------------9-------------|
----------------------------------------------------|
----------------------------------------------------|

                                                     
--12-------12-------12----------12----------11------|
----------------------------------------------------|
----------------------------------------------------|
----------------------------------------------------|

                                                     
--10-------10-------10----------10----------10------|
----------------------------------------------------|
----------------------------------------------------|
----------------------------------------------------|

                                                     
--9--------9--------9-----------9-----------9-------|
----------------------------------------------------|
----------------------------------------------------|
----------------------------------------------------|

                                                     
----------------------------------------------------|
--12-------12-------12----------12----------12------|
----------------------------------------------------|
----------------------------------------------------|

                                                     
--------------------------------------------8-------|
--9--------9--------9-----------9-----12------------|
----------------------------------------------------|
----------------------------------------------------|

                                                     
--9--------9--------9-----------9-----------9-------|
--------------------------------------9-------------|
----------------------------------------------------|
----------------------------------------------------|

                                                     
--12-------12-------12----------12----11------------|
--------------------------------------------12------|
----------------------------------------------------|
----------------------------------------------------|

                                                     
--9--------9--------9-----------9-----------9-------|
--------------------------------------9-------------|
----------------------------------------------------|
----------------------------------------------------|

                                                     
--12-------12-------12----------12----------11------|
----------------------------------------------------|
----------------------------------------------------|
----------------------------------------------------|

                                                     
--10-------10-------10----------10----------10------|
----------------------------------------------------|
----------------------------------------------------|
----------------------------------------------------|

                                                     
--9--------9--------9-----------9-----------9-------|
----------------------------------------------------|
----------------------------------------------------|
----------------------------------------------------|

                                                     
----------------------------------------------------|
--12-------12-------12----------12----------12------|
----------------------------------------------------|
----------------------------------------------------|

                                                     
--9--------9--------9-----------9-----9-------------|
--------------------------------------------12------|
----------------------------------------------------|
----------------------------------------------------|

                                                     
----------------------------------------------------|
--10-------10-------10----------------10------------|
----------------------------------------------------|
----------------------------------------------------|

                                                     
--------------------------------------12-12---------|
--9--------9--------9-----------------------10s-----|
----------------------------------------------------|
----------------------------------------------------|

                                                     
----------------------------------------------------|
--10s------10-------10----------------10------------|
----------------------------------------------------|
----------------------------------------------------|

                          S  P  S     S  P  S
--12-------12-------12-------12----------12---------|
----------------------------------------------------|
--------------------------10----10----10----10------|
----------------------------------------------------|


----------------------------------------------------|
--10-------10-------10----------------10------------|
----------------------------------------------------|
----------------------------------------------------|


----------------------------------------------------|
--9--------9--------9-----------------9-------------|
----------------------------------------------------|
----------------------------------------------------|


----------------------------------------------------|
----------------------------------------------------|
--12-------12-------12----------------12------------|
----------------------------------------------------|


-----------------------------------------------8----|
--9--------9--------9-----------------9--10-12------|
----------------------------------------------------|
----------------------------------------------------|


--9--------9--------9-----------9-----------9-------|
----------------------------------------------------|
----------------------------------------------------|
----------------------------------------------------|


--9--------9--------9-----------9-----9-------------|
--------------------------------------------12------|
----------------------------------------------------|
----------------------------------------------------|


----------------------------------------------------|
--10-------10-------10----------10----------10------|
----------------------------------------------------|
----------------------------------------------------|


--------------------------------11------------------|
--12-------12-------12----------------------12------|
----------------------------------------------------|
----------------------------------------------------|


--9--------9--------9-----------9-----------9-------|
----------------------------------------------------|
----------------------------------------------------|
----------------------------------------------------|


--9--------9--------9-----------9-----9-------------|
--------------------------------------------12------|
----------------------------------------------------|
----------------------------------------------------|


----------------------------------------------------|
--10-------10-------10----------10----------10------|
----------------------------------------------------|
----------------------------------------------------|


--------------------------------11-----------------|||
--12-------12-------12----------------------12----o|||
--------------------------------------------------o|||
---------------------------------------------------|||

Login or Register to remove this ad.