Ads

Plant Man Stage (Mega Man 6) Guitar Tab

Submitted: May 22, 2011 by Brainsick Fungus (Last updated: May 22, 2011)

5
Average: 5 (1 vote)
Download | Listen
Game: Mega Man 6
Composer(s): Yuko Kadota
Style: Alternate picking, Transcription
Series: Mega Man

AutoScroll: Slow | Medium | Fast
Plant Man
By Yuko Takehara
Mega Man 6
Tabbed by Brainsick Fungus
3/28/11



f-0-3-5-0-3-5-8-8-5---5--0-3-5-0-3-5-8-8-5---5---------------|
C-------------------8----------------------8-----------------|
G------------------------------------------------------------|
D------------------------------------------------------------|
A------------------------------------------------------------|
E------------------------------------------------------------|

f-----3-------3-7--5--3--------------------------------------|
C-3-6-----3-6------------6--3--------------------------------|
G------------------------------------------------------------|
D------------------------------------------------------------|
A------------------------------------------------------------|
E------------------------------------------------------------|

f-0-3-5-0-3-5-8-8-5-3-5--0-3-5-0-3-5-8-8-5---5---------------|
C------------------------------------------8-----------------|
G------------------------------------------------------------|
D------------------------------------------------------------|
A------------------------------------------------------------|
E------------------------------------------------------------|

f-----3-------3-7--8--7--5-----------------------------------|
C-3-6-----3-6--------------8-6-------------------------------|
G------------------------------------------------------------|
D------------------------------------------------------------|
A------------------------------------------------------------|
E------------------------------------------------------------|

f-------12-10--------------------------12-10-12-10-----------|
C-10-13-------13-12-10-8---------10-13--------------12-13-15-|
G------------------------10-11-------------------------------|
D------------------------------------------------------------|
A------------------------------------------------------------|
E------------------------------------------------------------|

f-12--------12-----------------------------------------------|
C----15-13-----15-13-12--15-13-12-10--13-12-10-8-------------|
G------------------------------------------------8-10--------|
D------------------------------------------------------------|
A------------------------------------------------------------|
E------------------------------------------------------------|

f---7-10--12-12-12s4-----------------------------------------|
C-9----------------------------------------------------------|
G------------------------------------------------------------|
D------------------------------------------------------------|
A------------------------------------------------------------|
E------------------------------------------------------------|

f-5-5-5--5-8-5---5-5-5--5-8-5---5-5-5--5-8-5---5--7--5-------|
C--------------8--------------8--------------5----------5----|
G------------------------------------------------------------|
D------------------------------------------------------------|
A------------------------------------------------------------|
E------------------------------------------------------------|

f-5-5-5--5-8-5---5-5-5--5-8-5---5-5-5--5-7-9-10-12--19-s12---|
C--------------8--------------8------------------------------|
G------------------------------------------------------------|
D------------------------------------------------------------|
A------------------------------------------------------------|
E------------------------------------------------------------|
Login or Register to remove this ad.