Ads

Plant Man (Mega Man 6) Guitar Tab

Submitted: Feb 29, 2016 by ltm_1988

0
Download | Listen
Game: Mega Man 6
Composer(s): Yuko Kadota
Style: Arrangement, Fingerstyle
Series: Mega Man

AutoScroll: Slow | Medium | Fast
Plant Man
Mega Man 6
Yuko Takehara
ltm_1988
1/10/2016

MIDI is slowed a little from game speed.

    S S S E   E   S Q       E   S S   S S S E   E   S Q       E   E  
E||---------------------------------|---------------------------------|
B||---------------------------------|---------------------------------|
G||---------------------------------|---------------------------------|
D||---------------------------------|---------------------------------|
A||-1---------1---1-----------------|-1---------1---1-------------3---|
E||---1-4-1---------1-------4---1-4-|---1-4-1---------1-------4-------|

    S S S S E   S E   S E   E   E     S S S S E   S E   S E   E   E  
E||---------------------------------|---------------------------------|
B||---------------2---2-------------|---------------2---2-------------|
G||*--1-3---1---3-------3---1---3---|---1-3---1---3-------3---1---3---|
D||*3---3-3-----3-3---3-------------|-3---3-3-----3-3---3-------------|
A||-1-----1-------------4---1---4---|-1-----1-------------4---1---4---|
E||---------------------------------|---------------------------------|

    E   S E   S E   E   S S S S E     E.    E   S E   E   S S S S E  
E||---------------------------------|---------------------------------|
B||---------------------------------|-1~------------------------------|
G||-------1~--------------------1---|-------------3-------1-----------|
D||-1---4-1---1---------1-1-4-1-----|-------1---1-----------1-4-1-1---|
A||---------------------------------|---------------------------------|
E||-4-----------4---4-----------4---|-4-----------4---4-----------4---|

    S S S S E   S E   S E   E   E     S S S S E   S E   S E   E   E  
E||---------------------------------|---------------------------------|
B||---------------2---2-------------|---------------2---2-------------|
G||---1-3---1---3-------3---1---3---|---1-3---1---3-------3---1---3---|
D||-3---3-3-----3-3---3-------------|-3---3-3-----3-3---3-------------|
A||-1-----1-------------4---1---4---|-1-----1-------------4---1---4---|
E||---------------------------------|---------------------------------|

    E   S E   S E   E   S S S S E     E.    E   S E   E   S S S S E  
E||---------------------------------|---------------------------------|
B||---------------------------------|-1~----------2-------1-----------|
G||-------1~--------------------1---|-------------------------3---1---|
D||-1---4-1---1---------1-1-4-1-----|-------1---1-----------1---1-----|
A||---------------------------------|---------------------------------|
E||-4-----------4---4-----------4---|-4-----------4---4-----------4---|

    E.    E   S E   E   S S S S E     E.    S S S E   E   S S S S E  
E||-----------------------------1---|---------------------------------|
B||-------------------------2-------|-4-------2---1-------------------|
G||---------------------3-----------|---------------------3---1-------|
D||-4~------------------------------|-------1---1-----------1---1-3---|
A||-------4---4-----------4---4-----|---------------------------------|
E||-2-----------2---2-----------2---|-4-----------4---4-----------4---|

    E.    E   S E   E   S S S S E     E.    S S S E   E   S S S S E  
E||-----------------------------1---|---------1-----------------------|
B||-------------------------2-------|-4-----------4-------1---2---4---|
G||---------------------3-----------|---------------------------------|
D||-4~------------------------------|-------1---1-----------1---1-----|
A||-------4---4-----------4---4-----|---------------------------------|
E||-2-----------2---2-----------2---|-4-----------4---4-----------4---|

    S E   E.    E   S E   E.    E     S E   E.    E   S S S S E   E  
E||-1-----------1-------------------|---------------------------------|
B||---4---2---------4-2---1-----4---|-2-1---------2---1---------------|
G||---------------------------------|-------3-------------3---1-------|
D||---------------------------------|-----------------1-1---1-----1---|
A||-1-1---1~--------3-3---3~--------|-4-4---4~--------------------3---|
E||---------------------------------|---------------------------------|

    S E   S S E   S S S S S S S S S   E   E   S E.    Q       S S S S
E||---------------------------------|-----1-----1-----1~--------------|
B||-------------------------1---4---|---------------------------------|
G||---------------------2-----------|---------------------------------|
D||-3~------------------------------|---------------------------------|
A||---------------------------------|-------------------------------0-|
E||-1-1---1-1-1---1-1-1---1-1-1---1-|-1---1---1-1-----1-------1-2-4---|

    S S S S S E   E   S E   E   E     S S S S S E   E   S E   E   E   
E||---------------------------------|---------------------------------|
B||---------------------2-----------|---------------------2-----------|
G||-3-3---3-----------3-----3---1---|-3-3---3-----------3-----3---1---|
D||---------3-----------------------|---------1-----------------------|
A||-1---1-1---1---1---1-1---4---1---|-------------------------3-------|
E||---------------------------------|-4---4-4---4---4---4-4-------4---|

    S S S S S E   E   S E   E   E     E   S S S E   S S S E   E   E  
E||---------------------------------|---------------------------------|
B||---------------------2-----------|---------1-----------------------|
G||-3-3---3-----------3-----3---1---|-3---------------3---1~----------|
D||---------------------------------|---------1-------------------1---|
A||---------4---------------1-------|-------------------------3-------|
E||-2---2-2---2---2---2-2-------2---|-4---4-4---4---4---4-4-----------|

    S S S S S E   E   S E   E   E     S S S S S E   E   S E   E   E   
E||---------------------------------|---------------------------------|
B||---------------------2-----------|---------------------2-----------|
G||-3-3---3-----------3-----3---1---|-3-3---3-----------3-----3---1---|
D||---------3-----------------------|---------1-----------------------|
A||-1---1-1---1---1---1-1---4---1---|-------------------------3-------|
E||---------------------------------|-4---4-4---4---4---4-4-------4---|

    S S S S S E   E   S E   E   E     E   S S S S S E   S E   E   E   x3 W
E||---------------------------------|-------------8~------------------||-6-
B||---------------------1---2---4---|-6-------------------------------||-6-
G||-3-3---3-----------3-------------|--------------------------------*||-6-
D||---------------------------------|--------------------------------*||-8-
A||---------4---------------1-------|-8---8-8---8---8---8-8---0-------||-8-
E||-2---2-2---2---2---2-2-------2---|---------8-------------------8---||-6-
Login or Register to remove this ad.