Ads

Mr. X Stage (Mega Man 6) Guitar Tab

Submitted: Mar 27, 2016 by ltm_1988

0
Download | Listen
Game: Mega Man 6
Composer(s): Yuko Kadota
Style: Arrangement, Fingerstyle
Series: Mega Man

AutoScroll: Slow | Medium | Fast
Mr. X Stages
Mega Man 6
Yuko Takehara
ltm_1988
3/25/2016

    E   Q       Q       Q       E     
E||---------------------------------|
B||---------------------------------|
G||---------------------------------|
D||---------------------------------|
A||-----------------------------4---|
E||-2---2-------2-------2-----------|

    E.    S E   E   E   Q       E     E   E   E   Q       Q       E  
E||-------5\7-------9-----------7---|-------------5-------0-------2---|
B||---------------------10----------|-----7---------------------------|
G||*--------0---0-------------------|-0-------0---0-------------------|
D||*--------------------------------|---------------------------------|
A||---------------------------------|-----------------------------4---|
E||-3---------------------------9---|---------------------------------|

    E   E   E   Q       Q       E     Q       E   Q       Q       E  
E||-------------0-------------------|---------------------------------|
B||-2-------3---2-------3-------2~--|---------3---2-------------------|
G||-----2---6-----------2~----------|---------------------2~----------|
D||-4-------------------------------|-----------------------------4---|
A||---------------------------------|---------------------------------|
E||---------------------------------|---------------------------------|

    E.    S E   E   E   Q       E     E   E   E   Q       Q       E  
E||-------5\7-------9-----------7---|-------------5-------0-----------|
B||---------------------10----------|-----7-----------------------7---|
G||---------0---0-------------------|-0-------0---0-------------------|
D||---------------------------------|---------------------------------|
A||---------------------------------|---------------------------------|
E||-3---------------------------9---|-----------------------------9---|

    E   E   E   E   E   E   E   E     E   Q       Q       E   E   E  
E||-------------0---5---------------|-7~------------------------------|
B||-7~----------------------5-------|-----0---------------0-----------|
G||---------6-----------6-------6---|-8-------------------------------|
D||-----7---------------------------|-------------4-----------4-------|
A||-9-------------------------------|-----------------------------6---|
E||---------------------------------|---------------------------------|

    E.    S E   E   E   Q       E     E   E   E   Q       Q       E  
E||-------5\7-------9-----------7---|-------------5-------0-------2---|
B||---------------------10----------|-----7---------------------------|
G||-0-------0---0-------------------|-0-------0---0-------------------|
D||---------------------------------|---------------------------------|
A||---------------------------------|-----------------------------4---|
E||-----------------------------9---|---------------------------------|

    E   E   E   Q       Q       E     Q       E   Q       Q       E  
E||-------------0-------------------|---------------------------------|
B||-2-------3---2-------3-------2~--|---------3---2-------------------|
G||-----2---6-----------2~----------|---------------------2~----------|
D||-4-------------------------------|-----------------------------4---|
A||---------------------------------|---------------------------------|
E||---------------------------------|---------------------------------|

    E.    S E   E   E   Q       E     E   E   E   Q       Q       E  
E||-------5\7-------9-----------7---|-------------5-------0-----------|
B||---------------------10----------|-----7-----------------------7---|
G||---------0---0-------------------|-0-------0---0-------------------|
D||---------------------------------|---------------------------------|
A||---------------------------------|---------------------------------|
E||-3---------------------------9---|-----------------------------9---|

    E   E   E   E   E   E   E   E     E   Q       Q       E   E   E  
E||-------------0---5---------------|-7~----------------------0-------|
B||-7~----------------------5-------|-----0---------------0-----------|
G||---------6-----------6-------6---|-8-------------------------------|
D||-----7---------------------------|-------------4-----------4---1---|
A||-9-------------------------------|---------------------------------|
E||---------------------------------|---------------------------------|

    E   E   E   Q       E   E   E     E   Q       E   E   E   E   E  
E||-2-------0---2-------3-----------|-------------------------0-------|
B||-----------------------------3~--|-----------------3---------------|
G||---------------------------------|---------------------------------|
D||-------------------------0-------|-------------------------0-------|
A||---------------------2-------2---|---------------------2-------2---|
E||-3---3-------3-------------------|-3---3-------3-------------------|

    E   Q       Q       E   E   E     E   Q       Q       Q       E  
E||-2-------------------------------|-14------------------------------|
B||-----2---------------------------|-----14------10------7-----------|
G||-------------2~------------------|-----------------------------6---|
D||---------------------------------|---------------------------------|
A||---------------------0---4---0---|---------------------------------|
E||-2---2-------2-------------------|---------------------------------|

    E   E   E   Q       E   E   E     E   Q       E   E   E   E   E  
E||---------0-----------------------|-------------------------0-------|
B||-7-----------7-------8-----------|---------------------------------|
G||-0---0-------0---------------7~--|-----------------7---------------|
D||-------------------------0-------|-------------------------0-------|
A||---------------------------------|-10--10------10------------------|
E||---------------------7-------7---|---------------------7-------7---|

    E   E   E   Q       E   E   E     E   Q       Q       Q       E  
E||-------------9-------------------|-7~------------------------------|
B||-7-------10----------10------7---|-------------7-------------------|
G||---------------------------------|-8---9---------------9-------8---|
D||-------------------------11------|---------------------------------|
A||-9---9-------9-------0-------0---|---------------------------------|
E||---------------------------------|---------------------------------|

    E   E   E   Q       Q       E     E   Q       Q       E   E   E  
E||-7-----------7-------10------9~--|-------------------------7---8---|
B||---------10----------------------|-------------10------10----------|
G||-0---0-------0---------------0---|---------------------------------|
D||---------------------9-----------|---------------------------------|
A||---------------------------------|-0---0-------0-------0-----------|
E||---------------------------------|-------------------------0-------|

    E   E   E   Q       Q       E     E   E   E   E   E   E   Q      
E||-9-------8---9-------12------12~-|---------10--------------9-------|
B||---------------------------------|-0---0-------0---12--0-----------|
G||---------------------------------|---------------------------------|
D||-8---8-------8-------11----------|---------------------------------|
A||-----------------------------13--|-------------------------9-------|
E||---------------------------------|---------------------------------|

    E   Q       Q       Q       E     E   E   E   E   E   E   E   E  
E||-10----------7~------------------|---------7-------9-------7-------|
B||---------------------------------|---------------------------------|
G||-0---0-------0---------------0---|-0---0-------0---------------0---|
D||---------------------------------|---------------------------------|
A||---------------------------------|---------------------------------|
E||---------------------7-----------|---------------------7-----------|

    E   E   E   E   E   E   E   E     Q       Q       Q       Q       x3 W
E||-9~------------------------------|-----------------0-------6-------||-7-
B||-----------------11--8---7-------|-7-------7-------9-------7-------||-7-
G||-9-------11------------------9---|---------6----------------------*||-7-
D||-----11------11------------------|--------------------------------*||-9-
A||---------------------------------|---------------------------------||-9-
E||---------------------------------|---------------------------------||-7-
Login or Register to remove this ad.