Ads

Knight Man (Mega Man 6) Guitar Tab

Submitted: Oct 02, 2014 by ltm_1988

5
Average: 5 (1 vote)
Download | Listen
Game: Mega Man 6
Composer(s): Yuko Kadota
Style: Arrangement, Fingerstyle
Series: Mega Man

AutoScroll: Slow | Medium | Fast
Knight Man
Mega Man 6
Yuko Takehara
ltm_1988
10/2/2014

    | -- 3 -- |     | -- 3 -- |        |-3-|   |-3-|   |-3-|   |-3-|
    Q    Q    Q     Q    Q    Q        E E E   E E E   E E E   E E E     W                                W
E||---------------------------------|---------------------------------|---------------------------------|---
B||---------------------------------|---------------------------------|---------------------------------|---
F#|---------------------------------|---------------------------------|---------------------------------|---
C#|-----------------0---------------|--2---------3-----2--------------|---------------------------------|---
G#|-3---------------2----3----2-----|--3---------5-----3-------5------|--2------------------------------|---
D#|-5----7----5-----3---------------|--1---------------0--------------|--3------------------------------|---*

    E   Q       Q       E   E   E     E   Q       E   E   E   E   E
E||---------------------------------|---------------------------------|
B||---------------------------------|---------------------------------|
F#|*------------0-------------------|---------------------------------|
C#|*2-----------2-----------4-------|-------------------------4-------|
G#|-3-----------0-------0---5-------|-0---5~----------5-------5---3---|
D#|-5---5-----------------------5---|-----5~------5~--5---5-----------|

    E   Q       Q       E   E   E     E   Q       E   E   E   E   E
E||---------------------------------|---------------------------------|
B||---------------------------------|---------------------------------|
F#|-------------0-------------------|---------------------------------|
C#|-2-----------2-----------4-------|-------------------------4-------|
G#|-3-----------0-------0---5-------|-0---5~----------5-------5---3---|
D#|-5---5-----------------------5---|-----5~------5~--5---5-----------|

    E   Q       E   E   Q       E     E   Q       E   E   Q       E
E||---------------------------------|---------------------------------|
B||---------------------------------|---------------------------------|
F#|-----------------0---------------|-2---------------4~--------------|
C#|-3---3-------3-------3-----------|-3---3-------3-------3-----------|
G#|-0---------------2-----------3---|-3---------------5-----------3---|
D#|---------------------------------|---------------------------------|

    E   Q       E   E   Q       E     E   E   TTS E   E   E   E   E
E||---------------------------------|-6---4---343-1-------1---3---6---|
B||---------------------------------|-----------------4---------------|
F#|-2-------------------4-------2---|---------------------------------|
C#|-2---2-------2---2---2-----------|-6~----------2-------------------|
G#|---------------------5-------2---|-7---7---------------------------|
D#|---------------------------------|---------------------------------|

    E   Q       Q       E   E   E     E   Q       E   E   E   E   E
E||---------------------------------|---------------------------------|
B||---------------------------------|---------------------------------|
F#|-------------0-------------------|---------------------------------|
C#|-2-----------2-----------4-------|-------------------------4-------|
G#|-3-----------0-------0---5-------|-0---5~----------5-------5---3---|
D#|-5---5-----------------------5---|-----5~------5~--5---5-----------|

    E   Q       Q       E   E   E     E   Q       E   E   E   E   E
E||---------------------------------|---------------------------------|
B||---------------------------------|---------------------------------|
F#|-------------0-------------------|---------------------------------|
C#|-2-----------2-----------4-------|-------------------------4-------|
G#|-3-----------0-------0---5-------|-0---5~----------5-------5---3---|
D#|-5---5-----------------------5---|-----5~------5~--5---5-----------|

    E   Q       Q       E   E   E     E   E   E   E   E   E   E   E
E||---------------------0---7---6---|-9---7---6---7---6---4---2---4---|
B||---------------------------------|-------------------------0-------|
F#|-2-----------4-----------5~------|---------4-----------------------|
C#|-3---3-------3-------3-----------|-----------------7---3-----------|
G#|-3-----------5-------------------|-8---8-------8---------------3---|
D#|-----------------------------8---|---------------------------------|

    E   E   E   E   E   E   S S S S   E   Q       E   Q       E.    S
E||-6---3-------6---3-------3---6---|-9-------------------------------|
B||---------4-----------4-----0---0-|---------------------------------|
F#|-7~--------------------------7---|-----------------2-------4-------|
C#|-----2---------------2-----------|-9-----------2---3-------5-----3-|
G#|-7-----------7-------------------|-7---7---------------------------|
D#|-----------------------------7---|---------------------------------|

    S Q       S Q       E   S E.      S S Q       E   E   E   S E.
E||---------------------------------|---------------------------------|
B||-0-----------------------0-------|-----------------0-------4-------|
F#|-2-----------4-----------2-------|-----2-----------2-------5-------|
C#|-3-3---------5-------3---3-------|-3-3-3-------3-------3---3-------|
G#|---------------------------3-----|---------------------------3-----|
D#|-------------0-------------------|---------------------------------|

    S S E   E   E   E   E   S S S S   S S E   E   E   E   E   S S E
E||---------2-------6-----------9---|-----7---9-------6-----------0---|
B||-2~--2~------2~------7-----0---0-|-------------7-------2-----------|
F#|-0-0---------0-------0---0---7---|-0-0---------0-------0---4-4-----|
C#|---------------------------0-----|-9---------------7---------------|
G#|---------------------------------|---------------------------------|
D#|---------------------------------|---------------------------------|

    S Q       S Q       E   S E.      S S Q       E   E   E   S E.
E||---------------------------------|---------------------------------|
B||-0-----------------------0-------|-----------------0-------4-------|
F#|-2-----------4-----------2-------|-----2-----------2-------5-------|
C#|-3-3---------5-------3---3-------|-3-3-3-------3-------3---3-------|
G#|---------------------------3-----|---------------------------3-----|
D#|-------------0-------------------|---------------------------------|

    S S E   E   E   E   E   S S E     S S E   E   E   E   E   S S E
E||---------2-------6-----------9---|-----6---11------6-------3---6---|
B||-2~--2~------2~------7-----------|-4-----------8-------4---4-------|
F#|-0-0---------0-------5---7-------|-0-0---------0-------0---4-4-----|
C#|---------------------5---5---9---|---------------------------------|
G#|---------------------------5-----|---------------------------------|
D#|---------------------------------|---------------------------------|

    E   Q       Q       E   E   E     E   E   E   Q       E   E   E
E||-0-----------------------0-------|---------------------------------|
B||-2-------------------4---2---2---|-4-------0---------------4-------|
F#|---------------------5-------3---|-5-------2---2-------2---5-------|
C#|---------------------3---0-------|-------------2-------2-----------|
G#|-1---1-------1---------------1---|-0---0-------0-----------3---0---|
D#|---------------------------------|---------------------------------|

    E   Q       Q       E   E   E     E   E   E   Q       E   E   E
E||-0-----------------------0-------|-2-------0-----------------------|
B||-2-------------------4---2---2---|-4-------2---4-------2-------0---|
F#|---------------------5-------3---|-------------5-------4-------2---|
C#|---------------------3---0-------|---------------------2-----------|
G#|-1---1-------1---------------1---|-0---0-------0-----------3---0---|
D#|---------------------------------|---------------------------------|

    E   S S S S E   S S E   S S E     E   E   E   E   E   E   E   E
E||---------------------------------|---------------------------------|
B||---------------------------------|---------------------------------|
F#|-4~------------------------------|-----------------1-------2---4---|
C#|-6-----6-6-------6-------6-------|-2---2---3---2-------2-------0---|
G#|-7---7---7-7-------7-------7-----|-------------2---2---2---3---2---|
D#|-------------7-------7---8---7---|-----4---4-----------4-----------|

    E   E   E   E   E   E     E   E   E   E   E   E     E   E   E   E   E   E
E||-------------------------|-------------------------|-------------------------|
B||-----------------0-------|-0---4---2---0---2-------|-----------------0-------|
F#|-2---4---2---4-------4---|---------0-------1---4---|-2---4---2---4-------4---|
C#|-------------5-----------|-3-----------------------|-------------5-----------|
G#|-3-----------5-----------|-7---3---2---0---2-------|-3-----------5-----------|
D#|-------------------------|---------------------4---|-------------------------|

    E   E   E   E   E   E     E   E   E   E   E   E     E   E   E   E   E   E
E||-------------------------|-------------------------|-------------------------|
B||-------------------------|-----------------0-------|-0---4---2---0---2-------|
F#|-2---1---1-------4-------|-2---4---2---4-------4---|---------0-------1---4---|
C#|-2-------4---2---4---6---|-------------5-----------|-3-----------------------|
G#|---------2---------------|-3-----------5-----------|-7---3---2---0---2-------|
D#|-----------------4-------|-------------------------|---------------------4---|

    E   E   E   Q       E   Q         E   E   E   Q       E   E   E   x3 W
E||---------------------------------|---------------------------------||---
B||-4~------------------------------|---------------------------------||-0-
F#|---------------------------------|--------------------------------*||-2-
C#|-2---2-------2-------2-----------|-2---2-------0------------------*||-2-
G#|-------------------------2-------|-----0---2---7-------7---2---0---||-3-
D#|-4---2---4---0-------4-----------|---------------------------------||-5-

*Tempo during the intro slows down
Login or Register to remove this ad.