Ads

Blizzard Man (Mega Man 6) Guitar Tab

Submitted: Sep 13, 2014 by ltm_1988

5
Average: 5 (1 vote)
Download | Listen
Game: Mega Man 6
Composer(s): Yuko Kadota
Style: Arrangement, Fingerstyle
Series: Mega Man

AutoScroll: Slow | Medium | Fast
Blizzard Man
Mega Man 6
Yuko Takehara
ltm_1988
9/13/2014

    E   E   E   E   E   E   E   E     E   S S E   E   E   E   E   E
E||---------------------------------|-----0/1~--------0---------------|
B||-------------------------3~------|-------------------------3-------|
G||*0---0---0---3---0---0---0---0---|-0---0---0---0---0---0---0---0---|
D||*------------5---------------0---|-----3/5~--------3---------------|
A||-------------------------1-------|---------------------------------|
E||-3-------------------3-----------|-3-------------------------------|

    E   E   E   E   E   E   E   E     E   E   E   E   E   E   E   E
E||-0---1-------1-------------------|---------------------------------|
B||---------------------1-----------|---------------------------------|
G||-0---2-------2---------------2~--|-----------------0---------------|
D||-3---3---3---3---3---3---3---3---|-3---3---3---3---3---3---3---3---|
A||-----------------------------3---|-0---1---3---0---5---3---1---0---|
E||---------------------------------|---------------------------------|

    E   E   E   E   E   E   E   E     E   S S E   E   E   E   E   E
E||---------------------------------|-----0/1~--------0---------------|
B||-------------------------3~------|-------------------------3-------|
G||-0---0---0---3---0---0---0---0---|-0---0---0---0---0---0---0---0---|
D||-------------5---------------0---|-----3/5~--------3---------------|
A||-------------------------1-------|---------------------------------|
E||-3-------------------3-----------|-3-------------------------------|

    E   E   E   E   E   E   E   E     E   E   E   E   E   E   E   E
E||-0---1-------1---------------5~--|-----------------3-------1-------|
B||---------------------1-----------|---------------------------------|
G||-0---2-------2-------------------|---------------------------------|
D||-3---3---3---3---3---3---3---3---|-3---3---3---3---3---3---3---3---|
A||-----------------------------3---|-0---1---3---0---5---3---1---0---|
E||---------------------------------|---------------------------------|

    E   E   E   E   E   E   E   E     E   E   E   E   E   E   E   E
E||-3~------------------6-------3---|-5-------1-------1---------------|
B||-----------------3-------4-------|-----------------1-------3-------|
G||-----0---3---0-------3---0---3---|---------2-----------2-------2---|
D||-1---1---1---1---------------3---|-0---3---0---3-----------3-------|
A||---------------------------------|-----5-------5-------------------|
E||---------------------------------|---------------------------------|

    E   E   E   E   E   E   E   E     E   E   E   E   E   E   E   E
E||-1---3-------3~------1---0-------|---------------------------------|
B||-----------------1-------1---3---|-5~--------------1~--------------|
G||---------0-----------0-------0---|---------0-----------0-----------|
D||-----2-------2-----------2-------|-----2-------2-----------2-------|
A||-3---3---3---3-------------------|-3---3---3---3-----------3---3---|
E||---------------------------------|---------------------------------|

    E   E   E   E   E   E   E   E     E   E   E   E   E   E   E   E
E||-3~------------------6-------3---|-5-------8-------5-------1-------|
B||-----------------3-------4-------|-------------------------3-------|
G||-----0---3---0-------3---0---3---|-----------------5---2-------2---|
D||-1---1---1---1---------------1---|-0---3---7---------------3-------|
A||---------------------------------|-----5---5---8-------------------|
E||---------------------------------|-------------10------------------|

    E   E   E   E   E   E   E   E     E   E   E   E   E   S S S S S S
E||-1---3-------3~------------------|---------------------------------|
B||-----------------1-------1-------|---------1-------3-------1-------|
G||---------0-----------0-------0---|---------------------------------|
D||-----2-------2-----------2-------|-2-------------------------------|
A||-3---3---3---3-------------------|-3---3---3---3---3---3---3---3-3-|
E||---------------------------------|---------3-----------0-1-3-5-6---|

    E   E   E   E   E   E   E   E     E   E   E   E   E   E   E   E
E||-1~------------------------------|---------------------------------|
B||-----------------4---3-------4~--|---------3-------1---------------|
G||-3---3---3---3---3---3---3---3---|-1---1---1---1---1---1---3-------|
D||-------------0---3---0-----------|-----------------1-------6---6---|
A||-1-------1---------------1-------|-------------3-------3-----------|
E||-----1-----------------------1---|-4-------4---------------4-------|

    E   E   E   E   E   E   E   E     E   E   E   E   E   E   E   E
E||---------------------------------|---------------------------------|
B||-1---3-------3~------------------|-1---3-------3~--3~------4-------|
G||-0---0---0---0---0---0---0---2---|-0---0---3-------0---2---3---0---|
D||-----------------------------5---|---------5---5-------------------|
A||-------------0---1---3-----------|---------------------------------|
E||-3-------3-----------------------|---------------------------------|

    E   E   E   E   E   E   E   E     E   E   E   E   E   E   E   E
E||-1~------------------------------|-----------------1-------3-------|
B||-----------------4---3-------4~--|---------4-----------------------|
G||-3---3---3---3---3---3---3---3---|-1---1-------1---1---1-------1---|
D||-------------0---3---0-----------|---------6-------1-------6-------|
A||-1-------1---------------1-------|-------------3-------3-----------|
E||-----1-----------------------1---|-4-------4---------------4-------|


    E   E   E   E   E   E   E   E     E   E   E   E   S S S S S S S S
E||-3---5-------5~------------------|-----------------6-------5-------|
B||---------------------------------|-------------------------0---3-4-|
G||-0---0---0---0---0---0---0---0---|-0---0---0---0---0---2-2-3-5-0---|
D||-------------0---4---0-----------|-------------0-----3-5-----------|
A||-0-------0---------------0-------|-0---1---3-------6---------------|
E||-----2-----------------------2---|---------------------------------|

    E   E   E   S S E   E   E   E     E   E   E   S S E   E   E   E
E||-6---5---6---8~------6---5-------|-6---5---6---8~------6---5---8---|
B||---------------------------------|---------------------------------|
G||-0---0---0---0---0---0---0---0---|---------------0-2---0-----------|
D||-5~------------7-8---7-------0---|-3~--3~--3~------3---3---3-------|
A||---------------------------------|-------------8---------------8---|
E||---------------------------------|-----------------------------8---|

    E   E   E   S S E   E   E   E     E   E   E   E   E   E   E   E
E||-10------8-------6-------5-------|-3~----------1~------1-------1---|
B||---------------------------------|-------------------------3-------|
G||-----------------0-----------0---|-------------2~------2-------2---|
D||---------------------3-----------|-3-------3---0---0---0---3---0---|
A||---------6~--6-8-6---6---6---6---|-5---5---5---------------5-------|
E||-11~-11~-------------------------|---------------------------------|

    E   E   E   E   E   S S S S E     E   E   E   E   E   S S S S E
E||-3~------------------1-------3---|-3~------------------1-------3---|
B||---------------------------------|---------------------------------|
G||-3---0-------0---3---------------|-2---------------2---------------|
D||-1---1---1---1---1---1-3h5p3-1---|-3---3---3---3---3---3---3---3---|
A||-------------------------6-------|---------3-----------3-5h6p5p3---|
E||---------------------------------|---------------------------------|

    E   E   E   E   E   E   E   E     E   S S S S S S S S S S S S S S x3 W
E||-3~------------------------------|-------------------------------1-||-3~
B||---------------------------------|-------------------------1-3-4---||---
G||-0---0---0---0---0---0---0---0---|-0---2---3---0---0-0-2-3--------*||---
D||-----0-------0-------0-------0---|-------------0-1-3---3---1---0--*||-5~
A||---------1---------------1-------|-------0-1-3---------------------||---
E||---------------------------------|-----3---------------------------||-3-
Login or Register to remove this ad.

1 comment on Blizzard Man

Great tab again

5

I've been really enjoying your tabs, nice work. [Obligatory request] I would love to see your take on my personal favorite Mega Man stage music, Splash Woman from Mega Man 9.