Ads

Dark Man's Stage (Mega Man 5) Guitar Tab

Submitted: Dec 23, 2011 by Omnicide

5
Average: 5 (6 votes)
Download | Listen
Game: Mega Man 5
Composer(s): Mari Yamaguchi
Style: Arrangement, Fingerstyle
Series: Mega Man

AutoScroll: Slow | Medium | Fast
Dark Man Stage
Megaman 5
Composed by Mari Yamaguchi
Arranged by William Geesdorf


Playing instructions: Play to the end of the measure marked D.S. al Coda. 
Go back to the measure marked "Segno" and play down to the end of the measure marked Da
Coda, then skip to the section marked "Coda" and play to the end.


"Segno"
      E  E  E  E  E   E  E  E     E  E  E  E  E  E  E   E     E  E  E  E   E  E  E  E   
E||------------0---------------|---------------------------|---------------------------|
B||------------0---------3-----|--2--------0--------0h--2--|--0------------------0-----|
G||*--------4------------4-----|--2-----2--------2--2------|--0--------0h--2-----0-----|
D||*-----2--------2S--4-----0--|-----2--------2------------|--------4---------0--------|
A||---2------------------------|--0--------0--------0------|-----2---------------4--2--|
E||---0--------0---------0-----|---------------------------|--0--------0---------------|


  E   E  E  E  E  E  E  E     E  E  E  E  E  E  E  E     E  E  E  E  E  E  E  E   
---------------------------|--------------------------|--------------------------|
------------3--------2-----|--0-----------------0-----|--------------------------|
--2------0--2--0-----2-----|--0--------0--------0--2--|--------4--0--------------|
--2S--4-----------4-----2--|-----------0-----------2--|-----2-----2--0-----4-----|
--0---------0--------0-----|-----2--4-----4--2--------|--0--------0-----4--0--2--|
---------------------------|--3--------3--------3-----|--------------------------|

1st Ending                                              2nd Ending
  E  E  E  E  E  E  E  E     E  E  E  E  E  E  E  E       E   E  E  E   E  E  E  E   
--------------------------|--0--0-----0---------------||----------------------------|
-----------0--------------|--1--1-----1--------3------||------------5p--3-----2-----|
-----0--------0--------0--|--------0-----2--0--2-----*||---------0------------2-----|
--2-----2--------2--4-----|-----2--------------4--0--*||--2S--4------------4-----2--|
--3--------3--------3-----|--3--------3---------------||----------------------------|
--------------------------|---------------------------||--0---------0---------0-----|


  E  E   E  E  E   E  E  E       E  E  E  E  E  E  E  E     E  E  E  E  E  E  E  E   
----------------------------||---------------------------|--------------------------|
--3---------5--0h--2--3-----||---5--------0--3--2-----3--|-----------------3--5-----|
--4---------5------------0--||*--0-----0-----0--0-----0--|--------0--6-----0--0-----|
-----4S--5------------------||*-----4--------------------|-----4--------4-----------|
----------------------------||---------------------------|-----------------------0--|
--0---------0---------2-----||---3--------3--------3-----|--3--------3--------3-----|


  E  E  E  E  E   E  E  E     E  E   E  E  E  E  E   E     E  E  E  E  E  E  E  E   
--------------0------------|----------------------------|--------------------------|
--3--3--------2p--0--------|----------------------------|--3-----------3--------1--|
--4--4-----0---------0--2--|---------------0------------|--3-----------3--5--3--2--|
--------4---------------4--|-----4p--0--4--------4------|-----0--2--3-----3--2--0--|
--2--------2---------2-----|--2---------2-----2--5p--0--|--1--------1--------1-----|
---------------------------|----------------------------|--------------------------|

1st Ending
  E  E  E  E  E   E  E  E     E  E   E  E  E  E  E  E     E  E  E  E  E  E  E  E     
---------------------------|---------------------------|---------------------------||
---------------------------|---------------------------|-----------0---------------||
-----------0--2p--0-----0--|---------------0--------4--|--5--------0--0-----------*||
-----2--3-----3------3--2--|-----2p--0--4-----0--------|-----4--0-----0--4--2--0--*||
---------------------------|--3---------3--------3-----|--3--------3--------3------||
--1--------1---------1-----|---------------------------|---------------------------||

2nd Ending
  E  E  E  E  E   E  E  E     E  E  E  E  E   E  E  E     E  E  E  E  E  E  E  E   
---------------------------|---------------------------|--------------------------|
---------------------------|-----------0---------------|-----1--------3-----------|
-----------0--2p--0-----2--|--------2-----2p--0-----0--|--------0--------0--2-----|
-----2--3-----3------3--2--|-----2---------------4-----|--2--------4-----------2--|
--1--------1---------1-----|--0--------0---------0-----|--0--------0--------4-----|
---------------------------|---------------------------|--------------------------|


    E  E   E  E  E  E  E  E     E  E  E  E  E  E  E   E     E  E  E  E  E  E  E  E   
|-------------------0-----1--|-----------0--------0h--1--|--1-----------1-----3-----|
|---3---------3-----3-----3--|--------3-----3--1--0h--1--|--3-----3-----3-----3-----|
|*--2--0h--2-----0-----------|-----2---------------------|-----2-----------2-----4--|
|*--0---------0--------0-----|--0--------0--------0------|--0--------0--------0-----|
|----------------------------|---------------------------|--------------------------|
|----------------------------|---------------------------|--------------------------|


  E  E  E  E  E  E  E  E     E  E  E  E  E  E  E  E     E  E  E  E  E  E  E  E   
--5--------3--------------|--5--------0--------------|--5-----0-----------------|
--3--------3-----0-----0--|--6--------8--------------|--6-----8-----6-----5-----|
--------4-----5-----2-----|--------------------------|--------------7-----5-----|
-----5--------------------|-----0--3-----0-----0-----|-----0-----0-----0-----0--|
--------------------0-----|-----------------7-----0--|--------8-----------0-----|
--3--------3--------------|--6--------6--------6-----|--6-----------6-----------|

                                              Da Coda
  E  E  E  E  E  E  E  E     E  E  E  E  E  E  E  E     E  E   E  E  E  E  E  E   
--------------------------|--------0-----------------|------------------0-----1--|
--3--------3--1-----------|-----1-----3--1-----------|--3---------3-----3-----3--|
--3-----3--------3--------|-----------------3--2-----|--2--0h--2-----0-----------|
-----3--------------3--2--|--3--------------------2--|--0---------0--------0-----|
--1--------1--------1-----|--1--------1--------3-----|---------------------------|
--------------------------|--------------------------|---------------------------|


  E  E  E  E  E  E  E   E     E  E  E  E  E  E  E  E     E  E  E  E  E  E  E  E   
-----------0--------0h--1--|--1-----------1-----3-----|--5--------3--------------|
--------3-----3--1--0h--1--|--3-----3-----3-----3-----|--3--------3-----0-----0--|
-----2---------------------|-----2-----------2-----4--|--------4-----5-----2-----|
--0--------0--------0------|--0--------0--------0-----|-----5--------------------|
---------------------------|--------------------------|--------------------0-----|
---------------------------|--------------------------|--3--------3--------------|


  E  E  E  E  E  E  E  E     E  E  E  E  E  E  E  E     E  E  E  E  E  E  E  E   
--5--------0--------------|--5-----0-----------------|--------------------------|
--6--------8--------------|--6-----8-----6-----5-----|--3--------3--1-----------|
--------------------------|--------------7-----5-----|--3-----3--------3--------|
-----0--3-----0-----0-----|-----0-----0-----0-----0--|-----3--------------3--2--|
-----------------7-----0--|--------8-----------0-----|--1--------1--------1-----|
--6--------6--------6-----|--6-----------6-----------|--------------------------|

               D.S. al Coda  "Coda"
  E  E  E  E  E  E  E  E       E  E   E  E  E  E  E  E     E  E  E  E  E  E  E   E   
--------0------------------||------------------0-----1--|-----------0--------0h--1--|
-----1-----4---------------||--3---------3-----3-----3--|--------3-----3-----1------|
-----------4--2-----------*||--2--0h--2-----0-----------|-----2-----------2---------|
--3--------------4--2--1--*||--0---------0--------0-----|---------------------------|
--1--------2--------2------||---------------------------|--1--------3--------1------|
---------------------------||---------------------------|---------------------------|


  E  E  E  E  E  E  E  E     E  E  E  E  E  E  E  E     E  E  E  E  E  E  E  E   
--1-----------1-----3-----|--5--------3--------------|--5--------3--------------|
--3-----3-----3-----3-----|--3--------3-----0-----0--|--------------------------|
-----2-----------2-----4--|--------4-----5-----2-----|--0-----0--0-----0--------|
--------------------------|-----5--------------------|-----0--------0--------0--|
--0--------0--------2-----|--3--------3--------0-----|--------------------0-----|
--------------------------|--------------------------|--3--------3--------------|


   E  E  E  E  E  E  E  E     E  E  E  E  E  E  E  E     E  E  E  E   E  E  E  E   
---------------------------|--------------------------|---------------------------|
--10-----8-----6-----5-----|--3-----------------------|--1--------1p--0-----------|
---0-----0-----0-----0-----|--0-----------0--2--0-----|--2-----2---------2--------|
------0-----0-----0-----0--|--------0--4-----------0--|-----2---------------2-----|
---------------------0-----|-----2--------------------|--0--------0---------0--3--|
---6--------6--------------|--3--------3--------3-----|---------------------------|


                                                        ^                 
  E  E  E  E  E  E  E  E     E  E  E  E  E  E  E  E     W                 
--0-----------------------|--1--------0--------------|--0----------------|
--3--------3--------------|--1--------1--------------|--3----------------|
--------3--3--2-----------|--------0-----0-----------|--2----------------|
-----3-----------3--2--0--|-----2-----------2--0-----|--0----------------|
--1-----------------1-----|--3-----------------3--1--|-------------------|
--------------------------|--------------------------|-------------------|


  W                  
--L----------------||
--L----------------||
--L----------------||
--L----------------||
-------------------||
-------------------||




Duration Legend
---------------
W - whole
H - half
Q - quarter
E - 8th
S - 16th
T - 32nd
X - 64th
. - note dotted
|-n-|  - n-tuplets


Tablature Legend
----------------
L - tied note
h - hammer on
p - pull off
S - shift slide
^ - brush up
Login or Register to remove this ad.

3 comments on Dark Man's Stage

great work

5

great work

Wow man, your arrangements

5

Wow man, your arrangements are fantastic.

Where have you been all this time @[email protected]

Great job,it's amazing once

5

Great job,it's amazing once again :D