Ads

Toad Man (Mega Man 4) Guitar Tab

Submitted: Feb 09, 2015 by ltm_1988

0
Download | Listen
Game: Mega Man 4
Composer(s): Yasuaki Fujita, Minae Fujii
Style: Arrangement, Fingerstyle
Series: Mega Man

AutoScroll: Slow | Medium | Fast
Toad Man
Mega Man 4
Minae Fujii
ltm_1988
2/9/2015

Slow down as you play
    S E   S E   E   Q       Q
E||-----------------2-------3-------|
B||-4~----------4-------------------|
G||---4---6-6~------3---------------|
D||-6-----------------------4~------|
A||---------------------------------|
D#|---------------------------------|

Speed up: 
    Q       Q       Q       Q         Q       S E   S E   E   E   E
E||-4~------------------------------|---------4-4---2-------------2---|
B||---------------------------------|---------------------4---4-------|
G||---------------------------------|---------------------------------|
D||-----------------0-------1-------|-----------------0-------1-------|
A||---------4-----------------------|---------4-----------------------|
D#|-5-------------------------------|-5-------------------------------|

    S E   S Q       Q       Q         Q       Q       Q       Q
E||-4-2---4~------------------------|---------------------------------|
B||---------------------------------|---------------------------------|
G||---------------------------------|---------------------------------|
D||-----------------0-------1-------|-----------------0-------1-------|
A||---------4-----------------------|---------4-----------------------|
D#|-5-------------------------------|-5-------------------------------|

    Q       E   S S E   E   E   E     S E   S Q       Q       Q
E||-4~----------2-4-7---6---4---2---|---2---4~------------------------|
B||---------------------------------|-4-------------------------------|
G||*--------------------------------|---------------------------------|
D||*----------------0-------1-------|-----------------0-------1-------|
A||---------4-----------------------|---------4-----------------------|
D#|-5-------------------------------|-5-------------------------------|

    Q       E   S S E   E   E   E     S S E   E   S E   Q       S S S
E||-9~----------7-9-11--9-----------|---------------------------------|
B||-------------------------12------|-9-7-----9~----------------------|
G||-----------------------------11--|---------------------------------|
D||---------------------------------|---------------------------------|
A||---------6-------7---------------|---------------------------------|
D#|-7-----------------------10------|10-8-7---0---5-7---5-------0-0-0-|

    Q       E   S S E   E   E   E     S E   S Q       Q       Q
E||-4~----------2-4-7---6---4---2---|---2---4~------------------------|
B||---------------------------------|-4-------------------------------|
G||---------------------------------|---------------------------------|
D||-----------------0-------1-------|-----------------0-------1-------|
A||---------4-----------------------|---------4-----------------------|
D#|-5-------------------------------|-5-------------------------------|

    Q       E   S S E   E   E   E     S S E   E   S E   Q       S S S
E||-9~----------7-9-11--9-----------|---------------------------------|
B||-------------------------12------|-9-7-----9~----------------------|
G||-----------------------------11--|---------------------------------|
D||---------------------------------|---------------------------------|
A||---------6-------7---------------|---------------------------------|
D#|-7-----------------------10------|10-8-7---0---5-7---5-------0-0-0-|

    E.    E.    S S E   Q.            E.    E.    S S E   Q.
E||-----------------2---2~----------|-4~------------4-7---4~----------|
B||-4~----------2-4-----------------|-------------7-------------------|
G||---------------------------------|---------------------------------|
D||---------------------0-----------|-------------0-------------------|
A||-------1-----4-------------------|-------2-------------6-----------|
D#|-0-------------------------------|-5-------------------------------|

    E.    E.    S S E   Q.            E   S S E   Q       E   Q
E||-----------------2---2~----------|-4-------7---4~----------4-------|
B||-4~----------2-4-----------------|-----7-9-------------------------|
G||---------------------------------|---------------------------------|
D||---------------------0-----------|-------------0-------------------|
A||-------1-----4-------------------|---------------------------------|
D#|-0-------------------------------|-5-----8-------------3-----------|

                     |-3-|   |-3-|
    Q.          E    E E E   E E E    H               H
E||-4~------------------------------|---------------------------------|
B||-------------4----2-0---------0--|-3~--------------2~--------------|
G||----------------------3---1-3----|---------------------------------|
D||---------------------------------|---------------------------------|
A||---------------------------------|---------------------------------|
D#|-5----------------4--------------|-3---------------2---------------|

    Q       Q       Q       E   E     S S S S S E   E   E   E   S E
E||-----------------------------2---|-4-2-----------------------------|
B||---------------------------------|-----4-2-4---------0-------------|
G||-4~------------------------------|-1-------------1-------3-----1---|
D||-----------------0-------1---4---|-----------4---------------4-----|
A||---------4-----------------------|---------------------------------|
D#|-5-------------------------------|---------------------------------|

    S S S S S S S S E   S E   S S S   S S S E.    S E   S S S S E.    x3 W
E||-------2-------2-----4-----2-4---|-7-----------10----9-6-----------||-4-
B||-2-4-----2-4---------------------|---7---9---------------7---7~----||-4-
G||---------------------------------|-------------------------8------*||-5-
D||---------------------------------|--------------------------------*||-6-
A||---------------------------------|-0---0-0-----0-0-----------------||-6-
D#|-0---0-0-----0-0-3---3-3-----3-3-|---------------------------------||---
Login or Register to remove this ad.