Ads

Title Screen (Mega Man 4) Guitar Tab

Submitted: Mar 04, 2015 by ltm_1988

0
Download | Listen
Game: Mega Man 4
Composer(s): Yasuaki Fujita, Minae Fujii
Style: Arrangement, Fingerstyle
Series: Mega Man

AutoScroll: Slow | Medium | Fast
Title Screen
Mega Man 4
Minae Fujii
ltm_1988
3/2/2015

    E   E   E   E   E   E   E   E     E   E   E   E   E   E   E   E
E||---------------------------------|---------------------------------|
B||---------------------------------|-----------------1---------------|
G||*--------0---2-----------0---2---|---------0---2-------3---2---3---|
D||*----0---------------0-----------|-----0-----------------------1---|
A||---------------------------------|---------------------------------|
E||-3---3---3---3---3---3---3---1---|-----1---1---1---1---1---1-------|

    E   E   E   E   E   E   E   E     E   E   E   E   E   E   E   E
E||---------------------------------|---------------------------------|
B||---------------------------------|-----------------1---------------|
G||---------2---3-----------2---3---|---------2---3-------3---2---2---|
D||-----1---1---1---1---1---1-------|-----1-----------------------0---|
A||-----------------------------3---|---------------------------------|
E||---------------------------------|---------------------------------|

    E   E   E   E   E   E   E   E     E   E   E   E   E   E   E   E
E||-------------------------0---2---|-----10--10----------------------|
B||-----------------1---3-----------|-------------13--11--10----------|
G||---------1---3---------------2---|-------------------------12--12--|
D||-----4-----------------------1---|---------------------------------|
A||---------------------------------|---------------------------------|
E||---------------------------------|-----------------------------13--|

    E   E   E   E   E   E   E   E     E   E   E   E   E   E   E   E
E||-------------------------10------|---------------------8-------10--|
B||---------8---8---11--11------10--|---------10--10--10--8---11------|
G||-----8---------------------------|-----10--8---8---12--------------|
D||-----------------------------10--|-----10--------------------------|
A||-----------------------------10--|-----10--------------10--10--10--|
E||---------------------------------|---------------------------------|

    E   E   E   E   E   E   E   E     E   E   E   E   E   E   E   E
E||---------------------------------|---------------------------------|
B||----\3---1-------3---1-------1---|---------------------------------|
G||-----3-------3---0---2---3-------|-----3---0---------------0---3---|
D||---------0---3---------------0---|---------0---3-------3-------3---|
A||---------------------------------|-----------------1---------------|
E||-----3---3---3---3---3---3---3---|-----3---3---3---3---3---3-------|

    E   E   E   E   E   E   E   E     E   E   E   E   E   E   E   S S   E   E   E   E   E   E   E   E
E||---------------------------------|---------5-----------------------|---------------------------------|
B||----\3---1-------3---4---3---3---|---------------------------------|---------------------------------|
G||-----3-------3---0-------3-------|-----5-------0-------0-------2-2-|-3---------------2-------2---3---|
D||---------0---3-------------------|-----5-------------------3---1---|-0---0---1---1-----------4---5---|
A||-----------------------------3---|-----6---6---6---6---6-----------|---------------------------------|
E||-----1---1---1---1---1---1-------|---------------------------------|-----------------1---1---2---3---|

    E   E   E   E   E   E   E   E     E   E   E   E   E   E   E   E
E||---------------------------------|---------------------------------|
B||----\3---1-------3---1-------1---|---------------------------------|
G||-----3---2---3---3---2---3---2---|-----3---0-----------------------|
D||---------0---5---0---------------|---------0-----------------------|
A||-------------------------1-------|---------------------3---1-------|
E||-----3---------------1-------3---|-----3---3---3---3---3---3---3---|

    E   E   E   E   E   E   E   E     E   E   E   E   E   E   E   E
E||---------------------------------|---------------------------------|
B||----\3---1-------3---1-------3---|-----4---1-----------------------|
G||-----3---2---3---3---2---3---2---|-----5---2-----------------------|
D||-----------------------------1---|---------1---1---------------0---|
A||---------------------------------|-----6-----------0---------------|
E||-1---1---1---1---1---1---1-------|---------------------3---1-------|

    E   E   E   E   E   E   E   E     E   E   E   E   E   E   E   E     E   E   E   E   E   E   E   E   x3 W
E||-----3---3---1---3---3---1---3---|---------------------------------|-----3---3---1---3---6---5---3---||-3-
B||---------------------------------|---------------------------------|---------------------------------||-3-
G||---------------------------------|-----0---0-------0---0-------0---|--------------------------------*||-3-
D||-----0---0-------0---0-------0---|-----0---0---3---0---0---3---0---|-----0---0-------0---0-------0--*||-5-
A||-------------3-----------3-------|-------------3-----------3---3---|-----1-------3-------3---3-------||-5-
E||-1---1---------------3-------3---|-----1-------2-------3-----------|---------3-------------------1---||-3-
Login or Register to remove this ad.