Ads

Skull Man (Mega Man 4) Guitar Tab

Submitted: Sep 26, 2014 by ltm_1988

0
Download | Listen
Game: Mega Man 4
Composer(s): Yasuaki Fujita, Minae Fujii
Style: Arrangement, Fingerstyle
Series: Mega Man

AutoScroll: Slow | Medium | Fast
Skull Man
Mega Man 4
Minae Fujii
ltm_1988
9/25/2014

    E   S S E   S S E   S S E   S S   E   S S E   S S E   S S E   S S
E||---------------------------------|---------------------------------|
B||---------0-------0---------------|-----0-------0-------------------|
G||*--------------------3-----------|-----------------3---------------|
D||*--------6-------6---4-------6---|-----6-------6---4-------6-------|
A||-----------------------------6---|-------------------------6-------|
D#|-5---5-5-5---5-5-5---5-5-5---5-5-|-5---5-5-5---5-5-5---5-5-5---5-5-|

    E   S S E   S S E   S S E   S S   E   S S E   S S E   S S E   S S
E||---------------------------------|---------------------------------|
B||---------------------------------|-----------------0-----------0---|
G||---------3-------3---1-----------|-----3-----------1-------3---1---|
D||---------4-------4---1-------4---|-----4-------------------4-------|
A||-----------------------------4---|---------------------------------|
D#|-3---3-3-3---3-3-3---3-3-3---3-3-|-3---3-3-3---3-3-3---3-3-3---3-3-|

    E   S S E   S S E   S S E   S S   E   S S E   S S E   S S E   S S
E||---------------------------------|---------------------------------|
B||---------0-------0---------------|-----0-------0-------------------|
G||---------------------3-----------|-----------------3---------------|
D||---------6-------6---4-------6---|-----6-------6---4-------6-------|
A||-----------------------------6---|-------------------------6-------|
D#|-5---5-5-5---5-5-5---5-5-5---5-5-|-5---5-5-5---5-5-5---5-5-5---5-5-|

    E   S S E   S S E   S S E   S S   E   S S E   S S E   S S E   S S
E||---------------------------------|---------------------------------|
B||---------------------------------|-----------------0---------------|
G||---------3-------3---1-----------|-----3-------3---1-------3---1---|
D||---------4-------4---1-------4---|-----4-------4-----------4---1---|
A||-----------------------------4---|---------------------------------|
D#|-3---3-3-3---3-3-3---3-3-3---3-3-|-3---3-3-3---3-3-3---3-3-3---3-3-|

    Q       Q.          E   E   E     Q       H.
E||---------------------------------|---------------------------------|
B||---------------------------------|---------4-----------------------|
G||-------------------------0---1---|---------0-----------------------|
D||---------------------4---0---1---|---------------------------------|
A||---------------------4-----------|---------2-----------------------|
D#|-5-------5-----------------------|---------------------------------|

    E   S S E   S S E   S S E   S S   E   S S E   S S E   S S E   S S
E||---------------------------------|---------------------------------|
B||---------4-------2---0-----------|---------------------------------|
G||---------4-------3---------------|-----------------3---------------|
D||---------------------6-------6---|-----6-------6-------4-------6---|
A||-----------------------------6---|-----6-------6---4---------------|
D#|-5---5-5-5---5-5-5---5-5-5---5-5-|-5---5-5-5---5-5-5---5-5-5---5-5-|

    E   S S E   S S E   S S E   S S   E   S S E   S S E   S S E   S S
E||-----------------------------0---|---------------------------------|
B||---------4-------2---0-----------|-----4-------2-------0-----------|
G||---------3-------3---1-----------|-----------------------------3---|
D||-----------------------------4---|-----2-------1---------------1---|
A||---------------------------------|---------------------4-----------|
D#|-3---3-3-3---3-3-3---3-3-3---3-3-|-3---3-3-3---3-3-3---3-3-3---3-3-|

    E   S S E   S S E   S S E   S S   E   E   E   E   E   E   E   E
E||---------------------------------|---------------------------------|
B||---------------------------------|-------------0-------------------|
G||-----1---------------------------|-----------------3-----------1---|
D||-----2---------------------------|-----6---8---1---1---4-------1---|
A||---------------------------------|-------------2-------6-----------|
D#|-1---1-1-1---1-1-1---1-1-1---1-1-|-----5---7-------0-------3---4---|

    E   S S E   S S E   S S E   S S   E   S S E   S S E   S S E   S S
E||---------------------------------|---------------------------------|
B||---------0-------0---------------|-----0-------0-------------------|
G||---------------------3-----------|-----------------3---------------|
D||---------6-------6---4-------6---|-----6-------6---4-------6-------|
A||-----------------------------6---|-------------------------6-------|
D#|-5---5-5-5---5-5-5---5-5-5---5-5-|-5---5-5-5---5-5-5---5-5-5---5-5-|

    E   S S E   S S E   S S E   S S   E   S S E   S S E   S S E   S S   E   E   E   E   E   Q       E
E||---------------------------------|---------------------------------|---------------------------------|
B||---------------------------------|-----------------0-----------0---|-----------------------------2---|
G||---------3-------3---1-----------|-----3-----------1-------3-------|---------------------------------|
D||---------4-------4---1-------4---|-----4-------------------4---6---|---------------------1-----------|
A||-----------------------------4---|---------------------------------|-----------------2-----------1---|
D#|-3---3-3-3---3-3-3---3-3-3---3-3-|-3---3-3-3---3-3-3---3-3-3---5-5-|-----3---4---5---------------3---|

    E   E   E   E   E   E   E   E     E   E   E   E   E   E   E   E
E||---------------------------------|---------0-----------------------|
B||-----------------2---0-----------|---------------------2-------4---|
G||-------------------------3-------|---------------------------------|
D||---------1-------------------4---|---------1---------------1-------|
A||-----1-----------1---1---6---1---|-1---2---4-------1---1-------2---|
D#|-------------0---3---3---5---0---|-------------0---------------0---|

    E   E   E   E   E   E   E   E     E   E   E   E   E   E   E   E
E||---------------------------------|---------------------------------|
B||-----------------4---2---0---4---|---------------------------------|
G||---------------------------------|---------------------------------|
D||---------1---------------1-------|---------1-------4---4---1-------|
A||-2---2-----------2---2-----------|-2---2-----------2---2-----------|
D#|-------------0---3-----------0---|-------------0---------------0---|

    E   E   E   E   E   E   E   E     E   E   E   E   E   E   E   E
E||---------------------------------|---------4-----------------------|
B||-6---------------6---4---3-------|-------------------------6-------|
G||-----------------------------3---|---------------------------------|
D||-0---0---1-------0---0-----------|-0---0-----------0---0-----------|
A||---------------------0---6-------|---------5---------------6-------|
D#|-5-----------0---5-------5---0---|-------------0-----------5---0---|

    E   E   E   E   E   E   E   E     E   E   E   E   E   E   E   E
E||-2---------------2---1---2-------|---------------------------------|
B||-----------------------------4---|---------------------------------|
G||---------------------------------|-------------3---3---------------|
D||-1---1---1-------1---1---1-------|-1---1---1-------1---1---3---4---|
A||-1-------------------------------|---------------------3---4---6---|
D#|-------------0---------------0---|-------------0---------------0---|

    E   S S E   S S E   S S E   S S   E   S S E   S S E   S S E   S S
E||---------------------------------|-x-------x-----------------------|
B||---------------------------------|-x-------x-----------------------|
G||---------------------------------|---------------------------------|
D||-4-----------------------4-------|---------------------------------|
A||-2-----------2-----------2-------|---------------------------------|
D#|-0---0-0-0---0-0-0---0-0-0---0-0-|-0---0-0-0---0-0-0---0-0-0---0-0-|

    E   S S E   S S E   S S E   S S   E   S S E   S S E   S S E   S S
E||---------------------------------|-x-------x-----------------------|
B||---------------------------------|-x-------x-----------------------|
G||-1-----------------------1-------|---------------------------------|
D||---------------------------------|---------------------------------|
A||-4-----------4-----------4-------|---------------------------------|
D#|-2---2-2-2---2-2-2---2-2-2---2-2-|-2---2-2-2---2-2-2---2-2-2---2-2-|

    E   E   E   E   E   E   E   E     E   E   E   E   E   E   E   E   x3 W
E||---------------------------------|---------------------------------||-4-
B||---------------------------------|---------------------2---2-------||-4-
G||-----0---1---3-------0---1---3---|-----0---1---3-------3---3------*||-4-
D||-----1---3---5-------1---3---5---|-----1---3---5------------------*||-6-
A||---------------------------------|---------------------------------||-6-
D#|-0---0-------5---0---0-------5---|-0---0-------5---3---3---3---4---||-5-
Login or Register to remove this ad.