Ads

Skull Man (Mega Man 4) Guitar Tab

Submitted: Dec 24, 2010 by Brainsick Fungus

4
Average: 4 (1 vote)
Download | Listen
Game: Mega Man 4
Composer(s): Yasuaki Fujita, Minae Fujii
Style: Transcription
Series: Mega Man

AutoScroll: Slow | Medium | Fast
SKull Man
By Minae Fujii and Yasuaki (Bun Bun) Fujita
Mega Man 4
Tabbed by Brainsick Fungus
12/20/10



e-7-7-6-4-7-7-6-4---6-6-4---6-7-6-7---------------------|
B-------------------------7-----------------------------|
G-------------------------------------------------------|
D-------------------------------------------------------|
A-------------------------------------------------------|
E-------------------------------------------------------|

e-7-7-6-4-7-7-6-4---6-6-4---6-6-7-6-4---------11--------|
B-------------------------7------------7-8-9------------|
G-------------------------------------------------------|
D-------------------------------------------------------|
A-------------------------------------------------------|
E-------------------------------------------------------|

e-11-9-7---------------11-9-7--12--11--9--7-------------|
B--------9-9-9-11-7-9------------------------11--9------|
G-------------------------------------------------------|
D-------------------------------------------------------|
A-------------------------------------------------------|
E-------------------------------------------------------|

e---6-7-6-------7-7-6-4-7-7-6-4---6-6-4---6-7-6-7-------|
B-9-------7-9---------------------------7---------------|
G-------------------------------------------------------|
D-------------------------------------------------------|
A-------------------------------------------------------|
E-------------------------------------------------------|

e-9--9-7-6-2-Ls12--9-11--11-9-7-11----------------------|
B-------------------------------------------------------|
G-------------------------------------------------------|
D-------------------------------------------------------|
A-------------------------------------------------------|
E-------------------------------------------------------|

e-13--13-11-10-6--Ls16--13-14--14-13-14-11--------------|
B-------------------------------------------------------|
G-------------------------------------------------------|
D-------------------------------------------------------|
A-------------------------------------------------------|
E-------------------------------------------------------|

e--------------------------------------------------9-9--|
B---6-7-7--0--7---9-----9---8-9-11--8-9-11--8-9-11------|
G-8------------------6----------------------------------|
D-------------------------------------------------------|
A-------------------------------------------------------|
E-------------------------------------------------------|
Login or Register to remove this ad.