Ads

Pharaoh Man (Mega Man 4) Guitar Tab

Submitted: Oct 01, 2014 by ltm_1988

0
Download | Listen
Game: Mega Man 4
Composer(s): Yasuaki Fujita, Minae Fujii
Style: Arrangement, Fingerstyle
Series: Mega Man

AutoScroll: Slow | Medium | Fast
Pharaoh Man
Mega Man 4
Minae Fujii
ltm_1988
9/28/2014

    E.    E.    Q       E   E   E     E.    E.    Q       E   E   E
E||---------------------------------|---------------------------------|
B||-0-------------------------------|---------------------------------|
G||---------------------------------|-0-------------------------------|
D||-4-------------------------------|---------------------------------|
A||-------0-----2-----------0---2---|-------0-----2-----------0---2---|
E||-2-------------------2-----------|-2-------------------2-----------|

    E.    E.    Q       E   E   E     E.    E.    Q.          Q
E||---------------------------------|---------------------------------|
B||---------------------------------|-0-----------------------0------/|
G||-2---------------------------2---|-4-------------------------------|
D||---------------------------------|---------------------------------|
A||-------0-----2-----------0---2---|-------0-----2-------------------|
E||-2-------------------2-----------|-2-------------------------------|

    E   S S E   E   E   E   E   E     E   S E.    E   E   E   E   E
E||---------------------------------|---------------------------------|
B||/12--0---0---0---3---0-------0---|-----0-------3---0---0---2---3---|
G||---------------------------------|*--------------------------------|
D||-----0---0---0---4---0-------0---|*----0-------4---0---0---2---4---|
A||-------0-----2-----------0---2---|-------0-----2-----------0---2---|
E||-14------------------2-----------|-2-------------------2-----------|

                                                      | -  - 3 -  - |
    E   S S E   S E.    E   E   E     E.    E.    E   Q      Q      Q
E||---------------------------------|---------------------------------|
B||-3---2---0---0/2-----0-----------|---------------------------------|
G||-------------------------2---4---|-----------------~---------------|
D||-4---2---0---0/2-----0-------1---|-----------------~---------------|
A||-------0-----2-----------4---2---|-------0-----2---2------2------2-|
E||-2-------------------2---5-------|-2-------------------------------|

    E   S S E   E   E   E   E   E     E   S E.    E   E   E   E   E
E||---------------------------------|---------------------------------|
B||-----0---0---0---3---0-------0---|-----0-------3---0---0---2---3---|
G||---------------------------------|---------------------------------|
D||-----0---0---0---4---0-------0---|-----0-------4---0---0---2---4---|
A||-------0-----2-----------0---2---|-------0-----2-----------0---2---|
E||-2-------------------2-----------|-2-------------------2-----------|

                    | -  - 3 -  - |
    E   S S E   E   Q      Q      Q   E.    E.    Q       Q       S S
E||-----------------0---------------|---------------------------------|
B||-----2---3---2----------2--------|---------------------------------|
G||-----0-------2---0-------------2-|-4---------------~---------------|
D||------------------------2--------|-0-----0-----2-------2-------3---|
A||-------0-----2---0------0------1-|-2-----------------------------5-|
E||-2-------------------------------|---------------------------------|

                                                                                        | -  - 3 -  - |
    E   E   S S S S S S S S S S S S   S S S E.    E   S E.    E   E     E   E   S S E   Q      Q      Q
E||---------------------------------|---------------------------------|-----2-----2-2---2------2------2-|
B||---------------------------------|-0---0-3-----0---3/5-----2-------|-0---0---0-0-0---0------0--------|
G||-----------------2---2-----------|---2-----------------------------|-------------------------------3-|
D||-----4-------4-----4-2-0-2-0-4---|-------4-----2---------------4---|---------------------------------|
A||-7---7---5-7---5-------------2-0-|-2-------------------------------|-----------------2------2------2-|
E||---------------------------------|---------------------------------|---------------------------------|

    S S S S E   S S S S E   S S E     E.    S E   S S E   E   E   E
E||-2---------------~---------------|-------0/2---0-------------------|
B||-0---0-3-----0---0-3-----0---0---|-3---------------3~--2---0-------|
G||---2-----------2-----------2-----|---------------------------------|
D||---------0-----0---------0-------|---------0-----0---------0-------|
A||-2-----------2---2---2-------2---|-2-----------2---2---2-------2---|
E||---------------------------------|---------------------------------|

    E.    S E   S S E   S S E   E     S S S S E   S S S S E   S S S S
E||---------------------------------|---------------------------------|
B||-2-----0---------3-----2---------|-0-------------------------------|
G||-2-----------2---------------2---|-------------------------------3-|
D||---------2-----2-4-------2-------|-0---0-4-0---0-0-2-4-2---3---4---|
A||-4-----------3---3---3-------3---|-2-4---------2-4-5-------5-4-5---|
E||---------------------------------|---------------------------------|

    S E   S E   S S S S E   E   E     S S S S E   E   S S E   E   S S
E||-------------2-----7-------~-----|-------------2-----7-------~-----|
B||-0-0---0-3---3-------------------|-0-0-0-0-3---3-------------------|
G||---------4---------7-------~-----|---------2---------7-------~-----|
D||-4-4---4-0-----0-----------------|-4-4---4-----4---------------4-6-|
A||-2-----------2---7---7---8---9---|-----------------7---7---8-------|
E||---------------------------------|---------------------------------|

                    | -  - 3 -  - |
    S E   S E   S S E   E  E   E  Q   S S S S S S S S E   E   E   E
E||---------0-----------------------|-0-------------------------------|
B||-2-2---2-2-------2------2------2-|---3-2-0-3-2-0---0---------------|
G||-2-2---2---------2------2------2-|---------------2-----------------|
D||-----------------0---0--1---2----|-----------------0---0-----------|
A||-0-------4---0-4-----------------|-0-------3---0-3---------3---0---|
E||---------------------------------|---------------------------------|

    S E   S E   S S S S E   E   E     S E   S E   S S S S E   E   E
E||-------------2-----7-------~-----|-------------2-----7-------~-----|
B||-0-0---0-3---3-------------------|-0-0---0-3---3-------------------|
G||---------4---------7-------~-----|---------4---------7-------~-----|
D||-4-4---4-0-----0-----------------|-4-4---4-1-------5---5---4---5---|
A||-2-----------2---9---9---8---9---|-2-----------3-6-----------------|
E||---------------------------------|---------------------------------|

    S E   S E   S S E   E   S S E     S S S S S S S H               S
E||-9-9---9-9-------9---7-----5-----|-7~------------------------------|
B||---------------------------------|---------------------------------|
G||-9-9---9-9-------9---7-----6-----|-8~------------------------------|
D||---------------------------------|-----0-----0---------------------|
A||-0-----------0---------------4---|---------7-----0-----------------|
E||---------9-----9-9---9---7-------|-7-9---7-----9-------------------|

   1.2.3.___________                      4.____________
    E   S S E   E   E   E   E   E   x3 W
E||---------------------------------||---------------------------------||
B||-----0---0---0---3---0-------0---||---------------------------------||
G||--------------------------------*||---------------------------------||
D||-----4---0---0---4---0-------0--*||---------------------------------||
A||-------0-----2-----------0---2---||---------------------------------||
E||-2-------------------2-----------||-7-------------------------------||
Login or Register to remove this ad.