Ads

Intro 2 (Mega Man 4) Guitar Tab

Submitted: Feb 22, 2015 by ltm_1988

0
Download | Listen
Game: Mega Man 4
Composer(s): Yasuaki Fujita, Minae Fujii
Style: Arrangement, Fingerstyle
Series: Mega Man

AutoScroll: Slow | Medium | Fast
Intro 2
Mega Man 4
Minae Fujii
ltm_1988
2/20/2015
                             |-3-|
    E   S E.    S S E   S S  E E E    E   S E.    S S E   S E.    S S
E||---------------------------------|---------------------------------|
B||------------------------------0--|-3-----------2---2---------------|
G||*-------------------------0------|-2---2-2-----2-2-2---2-2-----2-2-|
D||*2---2-2-----2-2-2---2-2----2-2--|---------------------------------|
A||---------------------------------|-0---0-0-----0-0-0---0-0-----0-0-|
E||-0---0-0-----0-0-0---0-0----0-0--|---------------------------------|

    E   S S E   S S E   S S E   S S   E   S S E   S S E   E   E   E
E||---------------------------------|---------------------------------|
B||-0-------------------------------|---------------------------------|
G||-0---0-0-2---0-0-2---------------|-0-------------------------------|
D||-----------------0---0-0-4---0-0-|---------4-----2-4---2---1-------|
A||---------------------------------|-3---3-3-----3-3-------------2---|
E||-3---3-3-----3-3-----------------|---------------------------------|

                             |-3-|
    E   S E.    S S E   S S  E E E    E   S E.    S S E   S E.    S S
E||---------------------------------|---------------------------------|
B||------------------------------0--|-3-----------2---2---------------|
G||--------------------------0------|-2---2-2-----2-2-2---2-2-----2-2-|
D||-2---2-2-----2-2-2---2-2----2-2--|---------------------------------|
A||---------------------------------|-0---0-0-----0-0-0---0-0-----0-0-|
E||-0---0-0-----0-0-0---0-0----0-0--|---------------------------------|

    E   S S E   S S E   S S E   S S   E   S S E   S S E   E   E   E   x3 W
E||-----------------------------0---|-0-------------0-3---2---0-------||-0-
B||-0-------------0-2---0-----------|---------3-------------------3---||-0-
G||-0---0-0-2---0-0-2---2-2-2---2-2-|-5---5-5-----5-5----------------*||-0-
D||---------------------------------|--------------------------------*||-2-
A||-----------------0---0-0-----0-0-|-3---3-3-----3-3-----------------||-2-
E||-3---3-3-----3-3-----------------|---------------------------------||-0-
Login or Register to remove this ad.