Ads

Intro (Mega Man 4) Guitar Tab

Submitted: Dec 12, 2010 by (Last updated: Dec 13, 2010)

2.5
Average: 2.5 (2 votes)
Download | Listen
Game: Mega Man 4
Composer(s): Yasuaki Fujita, Minae Fujii
Style: Transcription
Series: Mega Man

AutoScroll: Slow | Medium | Fast
Intro
Mega Man 4
Unknown
Link Strife07
12/12/10



e|--4---2-4-2--7---0---2-0---------|
B|---------------0---------4-------|
G|---------------------------1-----|
D|---------------------------------|
A|---------------------------------|
E|---------------------------------|

e|--------0---0--0-------0-2-------|
B|--2---4---0----------4-----------|
G|---------------------------------|
D|---------------------------------|
A|---------------------------------|
E|---------------------------------|

e|---------------------------------|
B|--0--2--4------------------------|
G|---------------------------------|
D|---------------------------------|
A|---------------------------------|
E|---------------------------------|

e|--4--2-4-2----4--2---------------|
B|---------------------------------|
G|---------------------------------|
D|---------------------------------|
A|---------------------------------|
E|---------------------------------|

e|---0----0-4----------------------|
B|------4--------------------------|
G|---------------------------------|
D|---------------------------------|
A|---------------------------------|
E|---------------------------------|

e|--5---4-5-1--4--2--9--7--2-------|
B|---------------------------------|
G|---------------------------------|
D|---------------------------------|
A|---------------------------------|
E|---------------------------------|

e|--3---2--3-5-3-2--3-3----0-------|
B|---------------------------------|
G|---------------------------------|
D|---------------------------------|
A|---------------------------------|
E|---------------------------------|

e|--2---3-2--3-5-3-5--7--7---------|
B|---------------------------------|
G|---------------------------------|
D|---------------------------------|
A|---------------------------------|
E|---------------------------------|

e|--4--5--7--8--7-8-7--5-5---------|
B|---------------------------------|
G|---------------------------------|
D|---------------------------------|
A|---------------------------------|
E|---------------------------------|

e|--7----5-5-3--0------------------|
B|---------------------------------|
G|---------------------------------|
D|---------------------------------|
A|---------------------------------|
E|---------------------------------|

e|---0-2-3----2-3-2--2-----0-0-----|
B|---------------------------------|
G|---------------------------------|
D|---------------------------------|
A|---------------------------------|
E|---------------------------------|
Login or Register to remove this ad.