Ads

Dr. Cossack's Citadel Stages 3 & 4 (Mega Man 4) Bass/Guitar Tab

Submitted: Jul 23, 2012 by Jacob31593 (Last updated: Jul 23, 2012)

5
Average: 5 (1 vote)
Download | Listen
Game: Mega Man 4
Composer(s): Yasuaki Fujita, Minae Fujii
Style: 2 or more instruments, Arrangement, Transcription
Series: Mega Man

AutoScroll: Slow | Medium | Fast

Dr Cossack Stage 2 from Mega Man 4
Composed by Yasuaki Fujita and/or Minae Fujii
Tabbed by Jacob31593
July 23rd 2012

based on a true story
also bass

150 BPM

Lead

         W                     Q      Q     Q      Q        H          Q    Q        W                  
E||------------------------|-----------------------------|-----------------------|---------------------|
B||------------------------|--12~----10~----9~----10~----|--9~-------------------|---------------------|
G||*-----------------------|-----------------------------|------------------9----|--11~----------------|
D||*--9g11~----------------|-----------------------------|------------11---------|---------------------|
A||------------------------|-----------------------------|-----------------------|---------------------|
E||------------------------|-----------------------------|-----------------------|---------------------|


  Q    E   E   E   Q    E      Q     E   Q    E   Q       W                                      
-------9-------------------|---------------------------|--------------------|-------------------|
----------12--10--12----9--|--10----12--10----9--10----|--9~----------------|-------------------|
---------------------------|---------------------------|--------------------|-------------------|
---------------------------|---------------------------|--------------------|-------------------|
---------------------------|---------------------------|--------------------|-------------------|
---------------------------|---------------------------|--------------------|-------------------|


  E  E  E  E  E   Q    E     E  E  E  E  E   Q    E     Q     E  H         E                       
--------------------------|--------------------------|------------------------|-------------------|
-----------7--9--10----7--|--L--------7--9--10----9--|--L----10--7~--------L--|-------------------|
-----7--9-----------------|-----7--9-----------------|------------------------|-------------------|
--------------------------|--------------------------|------------------------|-------------------|
--------------------------|--------------------------|------------------------|-------------------|
--------------------------|--------------------------|------------------------|-------------------|


  Q    E   E   E   Q    E      Q     E   Q    E   Q       W                                      
-------9-------------------|---------------------------|--------------------|-------------------|
----------12--10--12----9--|--10----12--10----9--10----|--9~----------------|-------------------|
---------------------------|---------------------------|--------------------|-------------------|
---------------------------|---------------------------|--------------------|-------------------|
---------------------------|---------------------------|--------------------|-------------------|
---------------------------|---------------------------|--------------------|-------------------|


  E  E  E  E  E   Q    E     E  E  E  E  E   Q    E     Q     E  H         E                       
--------------------------|--------------------------|------------------------|-------------------|
-----------7--9--10----7--|--L--------7--9--10----9--|--L----10--7~--------L--|-------------------|
-----7--9-----------------|-----7--9-----------------|------------------------|-------------------|
--------------------------|--------------------------|------------------------|-------------------|
--------------------------|--------------------------|------------------------|-------------------|
--------------------------|--------------------------|------------------------|-------------------|


                                                                                           |-----3-----|     
  Q     Q     Q     Q        Q.      H         E     Q     Q     Q     Q        H          Q     Q     Q     
-------14----12----10----|------------------------|-------14----12----10----|--14~--------------------10----|
-------------------------|--14--------------------|-------------------------|-------------12----14----------|
-------------------------|----------11~--------L--|-------------------------|-------------------------------|
-------------------------|------------------------|-------------------------|-------------------------------|
-------------------------|------------------------|-------------------------|-------------------------------|
-------------------------|------------------------|-------------------------|-------------------------------|


                                        |-----3-----|                                                       
   Q.      Q.      E   E      H         Q     Q     Q        H          H             H          H          
--10------10------12--10--|------------------10----------|--10~--------11~--------|--12~--------17~--------|
--------------------------|--14--------14----------14----|------------------------|------------------------|
--------------------------|------------------------------|------------------------|------------------------|
--------------------------|------------------------------|------------------------|------------------------|
--------------------------|------------------------------|------------------------|------------------------|
--------------------------|------------------------------|------------------------|------------------------|


  E  E   E  E   E   E  E   E     Q    Q     E   E  E   E     E   E   E  E  E   E  E  E   
-----9------------------------|--9----9-------------------|-----------------------------|
--------10---------10-----12--|------------12--10---------|-----12--10---------------9--|
---------------11-------------|--------------------9--11--|-----------------------------|
------------------------------|---------------------------|-----------------------------|
------------------------------|---------------------------|----------------9--12--------|
------------------------------|---------------------------|-----------------------------|


   E  E  E   E  E   E   E   E     E  E   E  E   E   E  E   E     Q    Q     E   E  E   E   
----------------9--------------|-----9------------------------|--9----9-------------------|
--10---------------12--10------|--------10---------10-----12--|------------12--10---------|
---------------------------11--|---------------11-------------|--------------------9--11--|
---------9---------------------|------------------------------|---------------------------|
------------12-----------------|------------------------------|---------------------------|
-------------------------------|------------------------------|---------------------------|


  E   E   E  E  E   E  E  E      E  E   E   E  E   E   E   E   4x
-----------------------------|-----------------9---------------||
-----12--10------------------|---------12--10-----12--10-------||
--------------------------9--|--11------------------------11--*||
----------------9--11--------|--------------------------------*||
-----------------------------|---------------------------------||
-----------------------------|---------------------------------||

Harmony

      S S S S S S S S S S S S S S S S    S S S S S S S S S S S S S S S S    S S S S S S S S S S S S S S S S  
E||-----------------------------------|----------------------------------|----------------------------------|
B||-----------------------------------|----------------------------------|----------------------------------|
G||*----------------------------------|----------------------------------|----------------------------------|
D||*----7-----7-----7---7-----7-------|----7-----7-----7---7-----7-------|----7-----7-----7---7-----7-------|
A||---9---9-------9-------9-------9---|--9---9-------9-------9-------9---|--9---9-------9-------9-------9---|
E||-----------------------------------|----------------------------------|----------------------------------|


  S S S S S S S S S S S S S S S S    S S S S S S S S S S S S S S S S    S S S S S S S S S S S S S S S S  
----------------------------------|----------------------------------|----------------------------------|
----------------------------------|----------------------------------|----------------------------------|
----------------------------------|----------------6-----6-----6-----|----------------6-----6-----6-----|
----7-----7-----7---7-----7-------|--7-----7-----7-----------7-----7-|--7-----7-----7-----------7-----7-|
--9---9-------9-------9-------9---|------9-----9-----9-----9-----9---|------9-----9-----9-----9-----9---|
----------------------------------|----------------------------------|----------------------------------|


  S S S S S S S S S S S S S S S S    S S S S S S S S S S S S S S S S    S S S S S S S S S S S S S S S S  
----------------------------------|----------------------------------|----------------------------------|
----------------------------------|----------------------------------|----------------------------------|
----------------6-----6-----6-----|----------------6-----6-----6-----|----------------6-----6-----6-----|
--7-----7-----7-----------7-----7-|--7-----7-----7-----------7-----7-|--7-----7-----7-----------7-----7-|
------9-----9-----9-----9-----9---|------9-----9-----9-----9-----9---|------9-----9-----9-----9-----9---|
----------------------------------|----------------------------------|----------------------------------|


  S S S S S S S S S S S S S S S S    S S S S S S S S S S S S S S S S    S S S S S S S S S S S S S S S S  
----------------------------------|----------------------------------|----------------------------------|
----------------------------------|----------------------------------|----------------------------------|
----------------6-----6-----6-----|----------------6-----6-----6-----|----------------6-----6-----6-----|
--7-----7-----7-----------7-----7-|--7-----7-----7-----------7-----7-|--7-----7-----7-----------7-----7-|
------9-----9-----9-----9-----9---|------9-----9-----9-----9-----9---|------9-----9-----9-----9-----9---|
----------------------------------|----------------------------------|----------------------------------|


  S S S S S S S S S S S S S S S S    S S S S S S S S S S S S S S S S    S S S S S S S S S S S S S S S S  
----------------------------------|----------------------------------|----------------------------------|
----------------------------------|----------------------------------|----------------------------------|
----------------4-----4-----4-----|----------------4-----4-----4-----|----------------4-----4-----4-----|
--4-----4-----4-----------4-----4-|--4-----4-----4-----------4-----4-|--4-----4-----4-----------4-----4-|
------5-----5-----5-----5-----5---|------5-----5-----5-----5-----5---|------5-----5-----5-----5-----5---|
----------------------------------|----------------------------------|----------------------------------|


  S S S S S S S S S S S S S S S S    S S S S S S S S S S S S S S S S    S S S S S S S S S S S S S S S S  
----------------------------------|----------------------------------|----------------------------------|
----------------------------------|----------------------------------|----------------------------------|
----------------4-----4-----4-----|----------------4-----4-----4-----|----------------4-----4-----4-----|
--4-----4-----4-----------4-----4-|--4-----4-----4-----------4-----4-|--4-----4-----4-----------4-----4-|
------5-----5-----5-----5-----5---|------5-----5-----5-----5-----5---|------5-----5-----5-----5-----5---|
----------------------------------|----------------------------------|----------------------------------|


  S S S S S S S S S S S S S S S S    S S S S S S S S S S S S S S S S    S S  S S S S  S S S S  S S S S  S S  
----------------------------------|----------------------------------|--------------------------------------|
----------------------------------|--------------------7-5-----------|--------------------------------------|
----------------4-----4-----4-----|----------------4-------7---------|--------------------------------------|
--4-----4-----4-----------4-----4-|--4-----4-----4-----------0-------|--------------------------------------|
------5-----5-----5-----5-----5---|------5-----5-----5---------7-8-9-|--9-9------9------9---9------9--------|
----------------------------------|----------------------------------|------10-------10-------10-------10---|


  S S S S S S S S S S S S S S S S    S S  S S S S  S S S S  S S S S  S S  
----------------------------------|--------------------------------------|
----------------------------------|--------------------------------------|
----------------------------------|--------------------------------------|
----------------------------------|--------------------------------------|
--7-7-----7-----7---7-----7-------|--9-9------9------9---9------9--------|
------9-------9-------9-------9---|------10-------10-------10-------10---|


  S S  S S S S  S S S S  S S S S  S S    S S  S S S S  S S S S  S S S S  S S  
--------------------------------------|--------------------------------------|
--------------------------------------|--------------------------------------|
--------------------------------------|--------------------------------------|
--------------------------------------|--------------------------------------|
--9-9------9------9---9------9--------|--9-9------9------9---9------9--------|
------10-------10-------10-------10---|------10-------10-------10-------10---|


  S S S S S S S S S S S S S S S S    E  S E  S E  E  S E  S E     E  S E  S E  E  S E  S  S S  
----------------------------------|----------------------------|------------------------------|
----------------------------------|----------------------------|------------------------------|
----------------------------------|----------------------------|------------------------------|
----------------------------------|----------------------------|------------------------------|
--7-7-----7-----7---7-----7-------|----------------------------|---------------7--7-7-------7-|
------9-------9-------9-------9---|--7--7-7--7-7--8--8-8--8-8--|--9--9-9--9-9----------9-10---|


  S S S S S S S S S S S S S S S S    S S S S S S S S S S S S S S S S    S S S S S S S S S S S S S S S S  
----------------------------------|----------------------------------|----------------------------------|
----------------------------------|----------------------------------|----------------------------------|
----------------------------------|----------------------------------|----------------------------------|
--7-7-----7-----7---7-----7-------|----7-----7-----7---7-----7-------|----7-----7-----7---7-----7-------|
------9-------9-------9-------9---|--9---9-------9-------9-------9---|--9---9-------9-------9-------9---|
----------------------------------|----------------------------------|----------------------------------|


  S S S S S S S S S S S S S S S S    S S  S S S E.  S S S S S S S S     E  S S  E  S S S S S S S S S S  
----------------------------------|---------------------------------|----------------------------------|
----------------------------------|------10---7---------------------|--10------10------9---7-------7---|
----------------------------------|-----------------6---9-----------|--------------------------9-------|
----7-----7-----7---7-----7-------|--7-7--------------------7-------|----------------7---7-------------|
--9---9-------9-------9-------9---|-----------------------------9---|------9-------9-------------------|
----------------------------------|---------------------------------|----------------------------------|


  S S S S S S S S S S S S S S S S    S S S S S S S S  E  E   E   E   4x
----------------------------------|----------------------------------||
----------------------------------|------------------10--9-----------||
----------------------------------|-------------------------11------*||
----7-----7-----7---7-----7-------|----7-----7-----7------------11--*||
--9---9-------9-------9-------9---|--9---9-------9-------------------||
----------------------------------|----------------------------------||


Bass

      E  S S S S S S S S S S S S S S    E  S S S S S S S S S S S S E     E  S S S S E  E  S S E  S S  
G||--------------------------2-4-2---|--------------------------------|------------------------------|
D||*--4--2-4-----2-4---6-4-4-------2-|-------------------2------------|------------------------------|
A||*-----------4---------------------|--5--5-5---5-5---0---5-4-5-4-0--|--2--2-2---0-2----------------|
E||----------------------------------|--------------------------------|----------------0--0-0-1--1-1-|


  E  S S S S E  S S S S S S S S    E  S S E  S S E  S S E  S S    E  S S E  S S E  S S E  S S  
------------------6-4-2-4-2-----|------------------------------|------------------------------|
--4--4-4---2-4--4-----------4-2-|--4--4-4-4--4-4-4--4-4-4--4-4-|--4--4-4-4--4-4-4--4-4-4--4-4-|
--------------------------------|------------------------------|------------------------------|
--------------------------------|------------------------------|------------------------------|


  E  S S E  S S E  S S E  S S    E  S S E  S S E  S S E  S S    E  S S E  S S E  S S E  S S  
------------------------------|------------------------------|------------------------------|
--2--2-2-2--2-2-2--2-2-2--2-2-|--2--2-2-2--2-2-2--2-2-2--2-2-|------------------------------|
------------------------------|------------------------------|--5--5-5-5--5-5-5--5-5-5--5-5-|
------------------------------|------------------------------|------------------------------|


  E  S S E  S S E  S S E  S S    E  S S E  S S E  S S E  S S    E  S S E  S S E  S S S S S S  
------------------------------|------------------------------|-------------------------6-----|
--2--2-2-2--2-2-2--2-2-2--2-2-|--4--4-4-4--4-4-4--4-4-4--4-4-|--4--4-4-4--4-4-4--4-4-6---4---|
------------------------------|------------------------------|-----------------------------5-|
------------------------------|------------------------------|-------------------------------|


  E  S S E  S S E  S S E  S S    E  S S E  S S E  S S E  S S    E  S S E  S S E  S S E  S S  
------------------------------|------------------------------|------------------------------|
--4--4-4-4--4-4-4--4-4-4--4-4-|--4--4-4-4--4-4-4--4-4-4--4-4-|--2--2-2-2--2-2-2--2-2-2--2-2-|
------------------------------|------------------------------|------------------------------|
------------------------------|------------------------------|------------------------------|


  E  S S E  S S E  S S E  S S    E  S S E  S S E  S S E  S S    E  S S E  S S E  S S E  S S  
------------------------------|------------------------------|------------------------------|
--2--2-2-2--2-2-2--2-2-2--2-2-|------------------------------|--2--2-2-2--2-2-2--2-2-2--2-2-|
------------------------------|--5--5-5-5--5-5-5--5-5-5--5-5-|------------------------------|
------------------------------|------------------------------|------------------------------|


  E  S S E  S S E  S S E  S S    E  S S E  S S S S S S S S S S    E  S S E  S S E  S S E  S S  
------------------------------|--------------------2-4---------|------------------------------|
--4--4-4-4--4-4-4--4-4-4--4-4-|--4--4-4-4--4-4-4-6-----0-2-3-4-|--5--5-5-5--5-5-5--5-5-5--5-5-|
------------------------------|--------------------------------|------------------------------|
------------------------------|--------------------------------|------------------------------|


  E  S S E  S S S S E  S S S S    E  S S E  S S E  S S E  S S    E  E  E  S S S S S S S E  S  
-------------------------------|------------------------------|--4--4--4--2-4---4---4-4-2--2-|
--4--4-4-4--4-4---4-4----4-4-4-|--5--5-5-5--5-5-5--5-5-5--5-5-|------------------------------|
-------------------------------|------------------------------|------------------------------|
-------------------------------|------------------------------|------------------------------|


  E  S S E  S S E  S S E  S S    E  S S E  S S S S E  S S S S    E  S S E  S S E  S S E  S S  
------------------------------|-------------------------------|------------------------------|
--5--5-5-5--5-5-5--5-5-5--5-5-|--4--4-4-4--4-4---4-4----4-4-4-|--5--5-5-5--5-5-6--6-6-6--6-6-|
------------------------------|-------------------------------|------------------------------|
------------------------------|-------------------------------|------------------------------|


  E  S S E  S S E  S S S S S S    E  S S S S S S S S S S S S S S    E  S S S S S S S S S S S S E   
--2--2-2-2--2-2-3--3-3-3-------|-------------------------2-4-2---|-------------------9-7-6-7-6----|
-----------------------------2-|--4--2-4-----2-4---6-4-4-------2-|-----------------7-----------7--|
-------------------------4-5---|-----------4---------------------|--5--5-5---5-5------------------|
-------------------------------|---------------------------------|--------------------------------|


  E  S S S S E  E  S S E  S S    E  S S S S S S E  S E  S E     E  S S S S S S S S S S S S S S  
------------------------------|-----------------6--6-4--4----|-------------------------2-4-2---|
--9--9-9---7-9----------------|---------------------------4--|--4--2-4-----2-4---6-4-4-------2-|
----------------7--7-7-8--8-8-|--9--9-9---7-9----------------|-----------4---------------------|
------------------------------|------------------------------|---------------------------------|


  E  S S S S S S S S S S S S E     E  S S S S E  E  S S E  S S    E  S S S S S S E  S E  S E   4x
-------------------9-7-6-7-6----|------------------------------|-----------------6--6-4--4-----||
-----------------7-----------7--|--9--9-9---7-9----------------|---------------------------4--*||
--5--5-5---5-5------------------|----------------7--7-7-8--8-8-|--9--9-9---7-9----------------*||
--------------------------------|------------------------------|-------------------------------||




Duration Legend
---------------
W - whole
H - half
Q - quarter
E - 8th
S - 16th
. - note dotted
|-n-|  - n-tuplets


Tablature Legend
----------------
L - tied note
g - grace note
~ - vibrato
Login or Register to remove this ad.