Ads

Dr. Cossack's Citadel Stages 1 & 2 (Mega Man 4) Guitar Tab

Submitted: Aug 30, 2014 by ltm_1988 (Last updated: Sep 19, 2014)

5
Average: 5 (1 vote)
Download | Listen
Game: Mega Man 4
Composer(s): Yasuaki Fujita, Minae Fujii
Style: Arrangement, Fingerstyle
Series: Mega Man

AutoScroll: Slow | Medium | Fast
Dr. Cossack's Citadel Stages 1 & 2
Mega Man 4
Minae Fujii
ltm_1988
8/28/2014

    S S S S S S S E   S S S E   E     E   S S S E   E   E   S E   E
E||---------------------------------|---------------------------------|
B||-0-0---------------------0---2---|---------------------------------|
G||*1-1---3-----4~------3---1---3---|-3-------------------------------|
D||*------5-----6~------5-----------|-5-----5~------------------------|
A||---------------------------------|-------6~------------------------|
D#|-0---0---0-0---0---0---0-0---0---|-0---0---0-0---0---0---0-0---0---|

    S S S S S S S E   S S S E   E     E   S S S E   E   E   S E   E
E||---------------------------------|---------------------------------|
B||-------------------------0-------|-0-------------------------------|
G||-3-3---0-----3~------3---1---3---|-1-----1~------------------------|
D||-5-5---1-----5~------5-------5---|-------1~------------------------|
A||---------------------------------|---------------------------------|
D#|-0---0---0-0---0---0---0-0---0---|-0---0---0-0---0---0---0-0---0---|

    E   S S E   S E   E   S E   E     E   S S E   S S S E   S E   S S
E||---------------------------------|---------------------------------|
B||-4-----2-----0-2-------0---------|-0-------------------------------|
G||-4-----3-------3-------1-----3---|-1-----3-----1---------------1-3-|
D||-------------6---------------4---|-------5-----2---1---------------|
A||---------6---------------4-------|---------2-------1-------1---2-4-|
D#|-5---5-------5-3---3---3-----3---|-1---1-------1-0---0---0-----0---|

    E   E   E   S S S E   S E   E     E   E   E   S E   E   S E   S S
E||---------------------------------|---------------------------------|
B||-----------------2---------------|-4~----------------------------4-|
G||-4~------------------------------|-----------------------------6---|
D||-1~--------------3-------4-------|-4~----------------------------4-|
A||---------2---------------4-------|---------6---------------6---7---|
D#|-1---1-------1-3---3---3-----3---|-4---5-------5-5---5---5-----5---|

    S S S S S S S S S S S S S S S S   S S S S S S S S S S S S S S S S
E||-----------------2---0-----------|-----------------0---------------|
B||-5~--------------------4---2---3-|-4~------------------4-2---0---2-|
G||-------1-------1-----------------|-------0-------0-------0-------0-|
D||-----2-------2-------2-6-----2---|-----1---4---1-------1---4---1---|
A||-4-4-4-----4-4-4---4---4-6-4-4-2-|-2-2-2-----1-2-2---2---2---2-1---|
D#|-5-------5-------5-------5-----5-|-5-------5-------5-------5-------|

    S S S S S S S S S S S S S S S S   S S S S S S S S S S S S S S S S
E||-------------------------0-------|-----------------------------0-2-|
B||-----0---------------------------|-4~------------------------------|
G||---------3---1-------------------|-------0-------0-------0-------0-|
D||-------1-----3-1-5~----1---------|-1---1---1---1-2-----1---1---1---|
A||-----4---1-1-4-1---1-4-1-2---4-6-|-1-4-----1-4-----1-4---4-1-4-----|
D#|-4-7-7---4-------4-------4-7-9---|---------------------------------|*

    E   E   E   E   E   S S S S E     E   E   E   E   E   S S S S E
E||-4~--------------6---7-9---6-----|-2~--------------4---5-4---2-----|
B||---------------------------------|---------------------------------|
G||---------------------------------|---------------------------------|
D||---------------------------------|-1---1---1---1---2---2---2---2---|
A||-2---2---2---2---4---4---4---4---|---------------------------------|
D#|---------------------------------|---------------------------------|

    E   E   E   S S E   E   E   E     E   E   E   E   Q       Q
E||---------------0-7~--------------|-6~----------------------3-------|
B||-5~----------4-------------------|-----------------4---------------|
G||---------------------------------|-0---0---0---0-------------------|
D||-2---2---2---2-------------------|---------------------------------|
A||-----------------8---8---8---8---|---------------------------------|
D#|---------------------------------|---------------------------------|

    E.    S E   E   E.    S E   E     E.    S E   S S E   E   E   E
E||-4~----4-----4---6-------3-------|-6-----4-----6-7-----------------|
B||-------0-----0-------------------|-------0---------4~--------------|
G||-4~--------------6-------3-------|-6-----------6-8---------0---0---|
D||-6-----6-----6---5-----5-1---5---|-------2---------4---4-----------|
A||---------6-----------------------|-7-------2---7-------------------|
D#|---------------------------------|---------------------------------|

    E.    S E   E   E.    S E   E     S S S E   E   E   E   S Q       x3 W
E||-4~----4-----4---6-------3-------|-4~------------------------------||-4-
B||-------0-----0-------------------|---------------------------------||-4-
G||-4~--------------6-------3-------|-4~----------------------1------*||-4-
D||-6-----6-----6---5-----5-1---5---|-6-6-6-6---6---6---6---1--------*||-6-
A||---------6-----------------------|---------------------------------||-6-
D#|---------------------------------|---------------------------------||-5-

*Alternate Tabbing
    S S S S S S S S S S S S S S S S   S S S S S S S S S S S S S S S S
E||-----------------2---0-----------|-----------------0---------------|
B||-5~--------------------4---2---3-|-4~------------------4-2---0---2-|
G||-------1-------1-----------------|-------0-------0-------0-------0-|
D||-----2-------2-------2-------2---|-----1---4---1-------1---4---1---|
A||-4-4-------4-4-4---4---4-6-4-4-2-|-2-2-2-----1-2-2---2---2---2-1---|
D#|-5-------5-------5-------5-------|---------5-------5-------5-------|

    S S S S S S S S S S S S S S S S   S S S S S S S S S S S S S S S S
E||-------------------------0-------|-----------------------------0-2-|
B||-----0---------------------------|-4~------------------------------|
G||---------3---1-------------------|-------0-------0-------0-------0-|
D||-------1-----3-1-5~----1---------|-1---1---1---1-2-----1---1---1---|
A||---1-1---1-1-4-1---1-4-1-2-1-4-6-|-1-4-----1-4-----1-4---4-1-4-----|
D#|-4---------------4-------4-------|---------------------------------|*
Login or Register to remove this ad.

3 comments on Dr. Cossack's Citadel Stages 1 & 2

Out of curiosity, do you just

Out of curiosity, do you just make these as MIDI files to be listened to without worrying about the guitar part? The middle isn't humanly possible.

Yeah, I formally request that

Yeah, I formally request that the tabber record him/herself playing lines 5 and 6 at the fastest speed he/she can. The tempo has to be consistent, and no missed notes. ;-)

Ah, an alternate tabbing has

Ah, an alternate tabbing has been added. I still vote for the tabber playing the whole piece. ;-)

To be honest if it turned out that it was playable at even three-fourths the tempo given, it would be pretty badass.