Ads

Top Man (Mega Man 3) Guitar Tab

Submitted: Dec 25, 2014 by ltm_1988

5
Average: 5 (1 vote)
Download | Listen
Game: Mega Man 3
Composer(s): Yasuaki Fujita
Style: Arrangement, Fingerstyle
Series: Mega Man

AutoScroll: Slow | Medium | Fast
Top Man
Mega Man 3
Yasuaki Fujita
ltm_1988
12/25/2014

    E   E   E   Q.          E   E     E   Q.          E   E   E   E
E||---------------------------------|---------------------------------|
B||---------------------------------|---------------------------------|
F||-0-----------2-----------0-------|-----2-----------3---4-----------|
C||-----4---2-------------------4---|-2-----------------------2---0---|
G||-------------0-------------------|-----0-----------1---2-----------|
C||-5---4---2---------------5---4---|-2-----------------------2---0---|

    E   E   E   Q.          E   E     E   Q.          E   E   E   E
E||---------------------------------|---------------------------------|
B||---------------------------------|---------------------------------|
F||-0-----------2-----------0-------|-----2-----------3---4---0-------|
C||-----4---2-------------------4---|-2---------------------------6---|
G||-------------0-------------------|-----0-----------1---2-----------|
C||-5---4---2---------------5---4---|-2-----------------------5---6---|

    E   E   E   E   E   E   E   E     E   E   E   E   E   E   E   E
E||---------------------------------|---------------------------------|
B||---------------------------------|---------------------------------|
F||*--------4-------2-------0-------|---------0-------2-------0-------|
C||*2---2---4---2---2---2---0---2---|-0---2---0---2---2---2---0---2---|
G||-2---2-------2-------2-------2---|-0---2-------2-------2-------2---|
C||-2---2---2---2---2---2---2---2---|-2---2---2---2---2---2---2---2---|

    E   E   E   E   E   E   E   E     E   E   E   E   E   E   E   E
E||---------------------------------|---------------------------------|
B||---------------------------------|---------------------------------|
F||---------4-------2-------0-------|---------0-------2-------0-------|
C||-2---2---4---2---2---2---0---2---|-0---2---0---2---2---2---0---0---|
G||-2---2-------2-------2-------2---|-0---2-------2-------2-------0---|
C||-2---2---2---2---2---2---2---2---|-2---2---2---2---2---2---2---2---|

    E   E   E   E   E   E   E   E     E   E   E   E   E   E   E   E
E||---------------------------------|---------------------------------|
B||---------------------------------|---------------------------------|
F||---------2-------0---------------|-----------------0---------------|
C||-0---0---0---0-------0---4---0---|-0---0---4---0-------0---4---0---|
G||-0---0-------0---3---0---2---0---|-----0---2---0---3---0---2---0---|
C||-0---0---0---0---0---0---0---0---|-5---0---0---0---0---0---0---0---|

    E   E   E   E   E   E   E   E     E   Q       Q       E   E   E
E||---------------------------------|---------------------------------|
B||---------------------------------|---------------------------------|
F||---------2-------0---------------|---------------------0-----------|
C||-0---0---0---0-------0---4---0---|-0---1-------2-----------4---2---|
G||-0---0-------0---3---0---2---0---|---------------------------------|
C||-0---0---0---0---0---0---0---0---|-0---1-------2-------5---4---2---|

    E   E   E   E   E   E   E   E     E   E   E   E   E   E   E   E
E||---------------------------------|---------------------------------|
B||---------------------------------|---------------------------------|
F||---------4-------2-------0-------|---------4-------2-------0-------|
C||-2---2-------2-------2-------2---|-2---2-------2-------2-------2---|
G||---------2-------0---------------|---------2-------0---------------|
C||-2---2---2---2---2---2---5---2---|-2---2---2---2---2---2---5---2---|

    E   E   E   E   E   E   E   E     E   E   E   E   E   E   E   E
E||---------------------------------|---------------------------------|
B||-------------------------1-------|-0-----------------------0-------|
F||-----------------0---------------|---------2-------2-----------4---|
C||-2-------4-----------------------|---------------------------------|
G||---------2-------0---------------|---------2-------0---------------|
C||-2---2---2---2---2---2---5---2---|-2---2-------2-------2---5---2---|

    E   E   E   E   E   E   E   E     E   E   E   E   E   E   E   E
E||---------------------------------|---------------------------------|
B||---------------------------------|---------------------------------|
F||---------2-------2-------2---4---|---------2-------2---0-----------|
C||---------------------5-------2---|-----2---------------------------|
G||---------------------------------|---------------------------------|
C||-2---2---2---2---2---2---2---2---|-2---2---2---2---2---2---2---2---|

    E   E   E   E   E   E   E   E     E   E   E   E   E   E   E   E
E||---------------------------------|---------------------------------|
B||-------------------------1-------|-3-------1-------0---------------|
F||-----------------0---------------|-------------------------2---4---|
C||-2-------4-----------------------|---------------------------------|
G||---------2-------0---------------|---------2-------0---------------|
C||-2---2---2---2---2---2---5---2---|-2---2-------2-------2---5---2---|

    E   E   E   E   E   E   E   E     E   E   E   E   E   E   E   E
E||---------------------------------|---------------------------------|
B||---------------------------------|---------------------------------|
F||---------2-------2-------2---4---|---------2-------2---0-----------|
C||-2---2---------------5-------2---|-----2---------------------------|
G||---------------------------------|---------------------------------|
C||-2---2---2---2---2---2---2---2---|-2---2---2---2---2---2---2---2---|

    E   E   E   E   E   E   E   E     E   E   E   E   E   E   E   E
E||---------------------------------|---------------------------------|
B||-------------------------1-------|-0-----------------------0-------|
F||-----------------0---------------|---------2-------2-----------4---|
C||-2-------4-----------------------|---------------------------------|
G||---------2-------0---------------|---------2-------0---------------|
C||-2---2---2---2---2---2---5---2---|-2---2-------2-------2---5---2---|

    E   E   E   E   E   E   E   E     E   E   E   E   E   E   E   E
E||---------------------------------|---------------------------------|
B||---------------------------------|---------------------------------|
F||---------2-------2-------2---4---|---------2-------2---0-----------|
C||---------------------5-------2---|-----2---------------------------|
G||---------------------------------|---------------------------------|
C||-2---2---2---2---2---2---2---2---|-2---2---2---2---2---2---2---2---|

    E   E   E   E   E   E   E   E     E   E   E   E   E   E   E   E
E||---------------------------------|---------------------------------|
B||-------------------------1-------|-3-------1-------0---------------|
F||-----------------0---------------|-------------------------2---4---|
C||-2-------4-----------------------|---------------------------------|
G||---------2-------0---------------|---------2-------0---------------|
C||-2---2---2---2---2---2---5---2---|-2---2-------2-------2---5---2---|

    E   E   E   E   E   E   E   E     E   E   E   E   E   E   E   E
E||---------------------------------|---------------------------------|
B||---------------------------------|---------------------------------|
F||---------2-------2-------2---4---|---------2-------2---------------|
C||-2---2---------------5-------2---|-----2-------------------1---0---|
G||---------------------------------|---------------------------------|
C||-2---2---2---2---2---2---2---2---|-2---2---2---2---2---2---1---0---|

    Q       Q       E   Q       E     E   Q       Q       E   E   E
E||---------------------------------|---------------------------------|
B||---------------------------------|---------------------------------|
F||---------0-------0-----------0---|-----0---------------------------|
C||---------------------4-----------|-------------4-------0-----------|
G||---------3-------3---3-------3---|-----3-------3-----------4---2---|
C||---------------------------------|---------------------------------|

    Q       Q       E   Q       E     E   Q       Q       E   E   E
E||---------------------------------|---------------------------------|
B||---------------------------------|---------------------------------|
F||---------0-------0-----------0---|-----0---------------------------|
C||---------------------4-----------|-------------4-------------------|
G||---------3-------3---3-------3---|-----3-------3-------2---1---0---|
C||---------------------------------|---------------------------------|

    E   E   E   E   E   E   E   E     E   E   E   E   E   E   E   E
E||---------------------------------|---------------------------------|
B||---------------------------------|---------------------------------|
F||-0---------------------------0---|-0-----------0---2~----------0---|
C||-2-------2-------4---0---2-------|-----0---2-----------0---2-------|
G||-0---0---0---0---0---0---0---0---|-0---0---0---0---0---0---0---0---|
C||---------------------------------|---------------------------------|

    E   E   E   E   E   E   E   E     E   Q       Q       Q       E   x3 W
E||---------------------------------|---------------------------------||-1-
B||---------------------------------|-------------0-------1-------2---||-3-
F||-4~--------------5~----------0---|-----5--------------------------*||-4-
C||-2-------2-----------0---2-------|-----------------------------0--*||-2-
G||---------------------------------|-----2-------3-------4-----------||-2-
C||-0---0---0---0---0---0---0---0---|---------------------------------||-2-
Login or Register to remove this ad.