Ads

Title Theme (Mega Man 3) Bass/Guitar Tab

Submitted: Dec 14, 2014 by hashel

0
Download | Listen
Game: Mega Man 3
Composer(s): Yasuaki Fujita
Style: 2 or more instruments, Arrangement
Series: Mega Man

Click here for a video example.

AutoScroll: Slow | Medium | Fast
Title: Title Theme (Intro)
Album: Megaman 3
Tabber: Hashel05
Tempo = 90
Please download the GP5 file for all the tracks :)

MELODY


                                                                             
E |----|----|----|----|----|----|----|----|----|----------------------------|
B |----|----|----|----|----|----|----|----|----|----------------------------|
G |----|----|----|----|----|----|----|----|----|--6L----------6-----6h-4----|
D |----|----|----|----|----|----|----|----|----|-----------------4----------|
A |----|----|----|----|----|----|----|----|----|----------------------------|
E |----|----|----|----|----|----|----|----|----|----------------------------|

                                                                           
----------------|----------------------------|----------------------------|
----------------|----------------------------|----------------------------|
--6-----6--8b---|--8L----------8--6h-4--6s---|--7-----------------6h-4----|
----------------|----------------------------|----------------------------|
----------------|----------------------------|----------------------------|
----------------|----------------------------|----------------------------|

                             
----------------------------|
----------------------------|
--6-------------------------|
-----7--4--------4-----7L---|
--------------7-------------|
----------------------------|

                                                                                
--------------------------------------------------------------------------------
--------------------------------------------------------------------------------
--------------------------------------------------------------4.----------------
--7-----------4.----------------------7.----------------------------------------
--------------------------------------------------------------------------------
--------------------------------------------------------------------------------

                                                     
-----------------------|----------------------------|
-----------------------|----------------------------|
------4h-5h------------|--4-------------------------|
-----------------------|-----7h-4--7--7L------------|
-----------------------|----------------------------|
-----------------------|----------------------------|

                                                          
----------------------------|----------------------------|
----------------------------|--------------------5--7L---|
--------------7--7----------|--------------4--6----------|
--7-------------------------|-----4--6--7----------------|
----------------------------|----------------------------|
----------------------------|----------------------------|

                                                                                
--------------------------------------------------------------------------------
--7-----------------------------------5-----------------------7-----------------
--------------6-----------------------------------------------------------------
--------------------------------------------------------------------------------
--------------------------------------------------------------------------------
--------------------------------------------------------------------------------

                        
------6h-7L------------|
-----------------------|
-----------------------|
-----------------------|
-----------------------|
-----------------------|

                                                                                
--7-----------------------5-----------------------------------------------------
--------------------------------------------------7h----------5-----------------
--------------------------------------------------------------------------------
--------------------------------------------------------------------------------
--------------------------------------------------------------------------------
--------------------------------------------------------------------------------

                                                     
-----------------------|----------------------------|
------6h-7L------------|--7--6--------------6--7L---|
-----------------------|--------6-------------------|
-----------------------|----------------------------|
-----------------------|----------------------------|
-----------------------|----------------------------|

                                                                                
--------------8s-9--------------------------------------------------------------
--7--------------------------10----------7--------------------------------------
-----------------------------------------------------6--------------------------
-----------------------------------------------------------------------------6--
-----------------------------------------------------------------9--------------
--------------------------------------------------------------------------------

                                                                             
-----------------------|--------------------------------------------7-------|
-----------------------|--------------------------7--------10---------------|
-----------------------|-----------6--------9-------------------------------|
---------7-------------|--9-------------------------------------------------|
-----------------------|----------------------------------------------------|
-----------------------|----------------------------------------------------|

                                                                                
--8h-------9-----------------------------------------------7--------------------
--------------------------------------------------------------------------------
--------------------------------------------------------------------------------
--------------------------------------------------------------------------------
--------------------------------------------------------------------------------
--------------------------------------------------------------------------------

                                                                                
--------------------------------------------------------------------------------
---------------------------10----------------------------------------------7----
--------------------------------------------------------------------------------
--------------------------------------------------------------------------------
--------------------------------------------------------------------------------
--------------------------------------------------------------------------------

                                                                                
--------------------------------------------------------------------------------
-------------------------------------------------------------------10-----------
--------------------------------------------------------------------------------
--------------------------------------------------------------------------------
--------------------------------------------------------------------------------
--------------------------------------------------------------------------------

                                                              
-------------------------------------------------------------|
-----------------------9-------------------------------------|
-------------------------------------------------------------|
-------------------------------------------------------------|
-------------------------------------------------------------|
-------------------------------------------------------------|

                                                                               
----------------------------|----|----|----|----|----|----|----|----|----|----|
-----------9--12------------|----|----|----|----|----|----|----|----|----|----|
--------10------------------|----|----|----|----|----|----|----|----|----|----|
--11----------------11------|----|----|----|----|----|----|----|----|----|----|
----------------------------|----|----|----|----|----|----|----|----|----|----|
----------------------------|----|----|----|----|----|----|----|----|----|----|

                                                
----|----|----|----|----|----------------------|
----|----|----|----|----|--------9--12---------|
----|----|----|----|----|-----10----------11---|
----|----|----|----|----|--11----------11------|
----|----|----|----|----|----------------------|
----|----|----|----|----|----------------------|

                                                     
----------------------------------------------------|
--14-14-12-14----12----14----12----14-14----12------|
----------------------------------------------------|
----------------------------------------------------|
----------------------------------------------------|
----------------------------------------------------|

                                                     
----------------------------------------------------|
--14-14-12-14----12----14----12----14-14----12------|
----------------------------------------------------|
----------------------------------------------------|
----------------------------------------------------|
----------------------------------------------------|

                                                     
--------------7--------7--9-----7--9--12-10-9--7----|
--10-7--9--10----9--10-------10---------------------|
----------------------------------------------------|
----------------------------------------------------|
----------------------------------------------------|
----------------------------------------------------|

                                                     
--16-14----16-14----16-14----16-14----16-14-13------|
--------14-------14-------14-------14----------14---|
----------------------------------------------------|
----------------------------------------------------|
----------------------------------------------------|
----------------------------------------------------|

                                                          
--------------12----11------|-----12----11---------------|
-----12-14------------------|--12-------------14----12---|
--11-------11----11----11---|--------11----11----11------|
----------------------------|----------------------------|
----------------------------|----------------------------|
----------------------------|----------------------------|

                                                          
--------------12----11------|-----12----11-------12-16L--|
-----12-14------------------|--12-------------14---------|
--11-------11----11----11---|--------11----11------------|
----------------------------|----------------------------|
----------------------------|----------------------------|
----------------------------|----------------------------|

                                                          
--16----14-12-------12-16L--|--16----14-12----11----12L--|
-----------------14---------|----------------------------|
----------------------------|----------------------------|
----------------------------|----------------------------|
----------------------------|----------------------------|
----------------------------|----------------------------|

                                                          
--12-11---------------------|----------------------------|
--------14----14----12------|--12-14----14L14------------|
----------------------------|----------------------------|
----------------------------|----------------------------|
----------------------------|----------------------------|
----------------------------|----------------------------|

                                                          
--------14----19----17------|--16----14-------14----16L--|
--14-17----14----14----14---|-----14----14-17------------|
----------------------------|----------------------------|
----------------------------|----------------------------|
----------------------------|----------------------------|
----------------------------|----------------------------|

                                                          
--16-------------------16---|----------------------------|
-----17-14----14-17---------|--17-14----14----14----14---|
-----------16---------------|--------16------------------|
----------------------------|----------------------------|
----------------------------|----------------------------|
----------------------------|----------------------------|

                                                          
-----12-------19----17------|--16----14-------14L---14---|
--14----19-14----14----14---|-----14----14-17------------|
----------------------------|----------------------------|
----------------------------|----------------------------|
----------------------------|----------------------------|
----------------------------|----------------------------|

                                                                         
--16-16-14-16----16-14-16---|--21-21-19-21----19-21------|----|----|----|
----------------------------|----------------------------|----|----|----|
----------------------------|----------------------------|----|----|----|
----------------------------|----------------------------|----|----|----|
----------------------------|----------------------------|----|----|----|
----------------------------|----------------------------|----|----|----|

                                                          
--------------------12-16L--|--16----14-12-------12-16L--|
-----------------14---------|-----------------14---------|
----------------------------|----------------------------|
----------------------------|----------------------------|
----------------------------|----------------------------|
----------------------------|----------------------------|

                                                          
--16----14-12----11----12L--|--12-11---------------------|
----------------------------|--------14----14----12------|
----------------------------|----------------------------|
----------------------------|----------------------------|
----------------------------|----------------------------|
----------------------------|----------------------------|

                                                                          
----------------------------|----|----|----|----|----|----|----|----|----|
--12-14----14L14------------|----|----|----|----|----|----|----|----|----|
----------------------------|----|----|----|----|----|----|----|----|----|
----------------------------|----|----|----|----|----|----|----|----|----|
----------------------------|----|----|----|----|----|----|----|----|----|
----------------------------|----|----|----|----|----|----|----|----|----|

                                                                           
----------------------------|----------------|----------------------------|
----------------------------|----------------|----------------------------|
--6L----------6-----6h-4----|--6-----6--8b---|--8L----------8--6h-4--6s---|
-----------------4----------|----------------|----------------------------|
----------------------------|----------------|----------------------------|
----------------------------|----------------|----------------------------|

                                                          
----------------------------|----------------------------|
----------------------------|----------------------------|
--7-----------------6h-4----|--6-------------------------|
----------------------------|-----7--4--------4-----7L---|
----------------------------|--------------7-------------|
----------------------------|----------------------------|

                                                                                
--------------------------------------------------------------------------------
--------------------------------------------------------------------------------
--------------------------------------------------------------4.----------------
--7-----------4.----------------------7.----------------------------------------
--------------------------------------------------------------------------------
--------------------------------------------------------------------------------

                                                     
-----------------------|----------------------------|
-----------------------|----------------------------|
------4h-5h------------|--4-------------------------|
-----------------------|-----7h-4--7--7L------------|
-----------------------|----------------------------|
-----------------------|----------------------------|

                                                          
----------------------------|----------------------------|
----------------------------|--------------------5--7L---|
--------------7--7----------|--------------4--6----------|
--7-------------------------|-----4--6--7----------------|
----------------------------|----------------------------|
----------------------------|----------------------------|

                                                                                
--------------------------------------------------------------------------------
--7-----------------------------------5-----------------------7-----------------
--------------6-----------------------------------------------------------------
--------------------------------------------------------------------------------
--------------------------------------------------------------------------------
--------------------------------------------------------------------------------

                        
------6h-7L------------|
-----------------------|
-----------------------|
-----------------------|
-----------------------|
-----------------------|

                                                                                
--7-----------------------5-----------------------------------------------------
--------------------------------------------------7h----------5-----------------
--------------------------------------------------------------------------------
--------------------------------------------------------------------------------
--------------------------------------------------------------------------------
--------------------------------------------------------------------------------

                                                     
-----------------------|----------------------------|
------6h-7L------------|--7--6--------------6--7L---|
-----------------------|--------6-------------------|
-----------------------|----------------------------|
-----------------------|----------------------------|
-----------------------|----------------------------|

                                                                                
--------------8s-9--------------------------------------------------------------
--7--------------------------10----------7--------------------------------------
-----------------------------------------------------6--------------------------
-----------------------------------------------------------------------------6--
-----------------------------------------------------------------9--------------
--------------------------------------------------------------------------------

                                                                             
-----------------------|--------------------------------------------7-------|
-----------------------|--------------------------7--------10---------------|
-----------------------|-----------6--------9-------------------------------|
---------7-------------|--9-------------------------------------------------|
-----------------------|----------------------------------------------------|
-----------------------|----------------------------------------------------|

                                                                                
--8h-------9-----------------------------------------------7--------------------
--------------------------------------------------------------------------------
--------------------------------------------------------------------------------
--------------------------------------------------------------------------------
--------------------------------------------------------------------------------
--------------------------------------------------------------------------------

                                                                                
--------------------------------------------------------------------------------
---------------------------10----------------------------------------------7----
--------------------------------------------------------------------------------
--------------------------------------------------------------------------------
--------------------------------------------------------------------------------
--------------------------------------------------------------------------------

                                                                                
--------------------------------------------------------------------------------
-------------------------------------------10-----------------------------------
--------------------------------------------------------------------------------
--------------------------------------------------------------------------------
--------------------------------------------------------------------------------
--------------------------------------------------------------------------------

                                                              
-------------------------------------------------------------|
-----------9-------------------------------------------------|
-------------------------------------------------------------|
-------------------------------------------------------------|
-------------------------------------------------------------|
-------------------------------------------------------------|

                                 ^
----------------------|-------|-------|----||
--------9--12---------|-------|-------|----||
-----10----------11---|--10---|--11---|----||
--11----------11------|-------|--11---|----||
----------------------|-------|--9----|----||
----------------------|-------|-------|----||


HARMONY



E |----|----|----|----|----|----|----|----|----|--------------------9--7----|
B |----|----|----|----|----|----|----|----|----|--10L---------10-7----------|
G |----|----|----|----|----|----|----|----|----|----------------------------|
D |----|----|----|----|----|----|----|----|----|----------------------------|
A |----|----|----|----|----|----|----|----|----|----------------------------|
E |----|----|----|----|----|----|----|----|----|----------------------------|


----------------------|----------------------------|----------|----------------|
--9--------10-7-------|-----------------------10L--|--10-9----|----------------|
-----------------9----|--8-----------8--9--11------|----------|----------------|
----------------------|----------------------------|----------|-----11----9----|
----------------------|----------------------------|----------|--9-----12------|
----------------------|----------------------------|----------|----------------|


----------------|
----------------|
----------------|
-----11----9----|
--9-----12------|
----------------|


--------------------------------------------------------------------------------
--------------------------------------------------------------------------------
--------------------------------------------------------------------------------
--------------------------------------------------------------------------------
--------------------------------------------------------------------------------
--------------------------------------------------------------------------------


-----------------------|----------------------------|-------|-------|--9----|
------12h13------------|--12-10----10-10-12---------|--7----|--10---|-------|
-----------------------|--------11------------------|-------|-------|-------|
-----------------------|----------------------------|-------|-------|-------|
-----------------------|----------------------------|-------|-------|-------|
-----------------------|----------------------------|-------|-------|-------|


----------|----------------------------|-------|-------|-------|----|----|----|
----------|--7L----------7--7--9--10---|--12---|--14---|--14---|----|----|----|
--9--10---|----------------------------|-------|-------|-------|----|----|----|
----------|----------------------------|-------|-------|-------|----|----|----|
----------|----------------------------|-------|-------|-------|----|----|----|
----------|----------------------------|-------|-------|-------|----|----|----|


----|----|----|----|----|----|----|----|----|----|----|----|----|
----|----|----|----|----|----|----|----|----|----|----|----|----|
----|----|----|----|----|----|----|----|----|----|----|----|----|
----|----|----|----|----|----|----|----|----|----|----|----|----|
----|----|----|----|----|----|----|----|----|----|----|----|----|
----|----|----|----|----|----|----|----|----|----|----|----|----|


----------------------------------------------------|
--7--7--7--7-----7-----7-----7-----7--7-----7-------|
----------------------------------------------------|
----------------------------------------------------|
----------------------------------------------------|
----------------------------------------------------|


----------------------------------------------------|
--7--7--7--7-----7-----7-----7-----7--7-----7-------|
----------------------------------------------------|
----------------------------------------------------|
----------------------------------------------------|
----------------------------------------------------|


--------------------------------------12-10-9-------|-----------9----|
--------------9--------9--10----9--10----------12---|-----6--9-------|
--11----9--11----9--11-------11---------------------|--6-------------|
-----12---------------------------------------------|----------------|
----------------------------------------------------|----------------|
----------------------------------------------------|----------------|


----------------------------------------------------|
--7--7--7-----------7--7--7-----7--7--7-----7--7----|
----------------------------------------------------|
----------------------------------------------------|
----------------------------------------------------|
----------------------------------------------------|


----------------------------------------------------|
--7-----------7--7--7-----7--7--7-----7--7--7-------|
----------------------------------------------------|
----------------------------------------------------|
----------------------------------------------------|
----------------------------------------------------|


----------------------------------------------------|
--7--7--7-----------7--7--7-----7--7--7-----7--7----|
----------------------------------------------------|
----------------------------------------------------|
----------------------------------------------------|
----------------------------------------------------|


----------------------------------------------------|
--7-----------7--7--7-----7--7--7-------------------|
----------------------------------------------------|
----------------------------------------------------|
----------------------------------------------------|
----------------------------------------------------|


----------------------------------------------------|
----------------------------------------------------|
--9--9--------6--6--------9--9--------6--6----------|
--------7--7--------7--7--------7--7--------7--7----|
----------------------------------------------------|
----------------------------------------------------|


----------------------------------------------------|
----------------------------------------------------|
--9--9--------6--6--------9--9--------6--6----------|
--------7--7--------7--7--------7--7--------7--7----|
----------------------------------------------------|
----------------------------------------------------|


----------------------------------------------------|
--7--7--------------------7--7----------------------|
--------6--6--9--9--6--6--------6--6--9--9--6--6----|
----------------------------------------------------|
----------------------------------------------------|
----------------------------------------------------|


----------------------------------------------------|--9~---|-------|--12~--|
--7--7--------9--9--------7--7----------------------|-------|--12~--|-------|
--------6--6--------6--6--------6--6--9--9--6--6----|-------|-------|-------|
----------------------------------------------------|-------|-------|-------|
----------------------------------------------------|-------|-------|-------|
----------------------------------------------------|-------|-------|-------|


--11~-----|-------|-------|-------|-------|
-----12~--|--9~---|-------|-------|-------|
----------|-------|--11~--|-------|-------|
----------|-------|-------|--11~--|--11~--|
----------|-------|-------|-------|-------|
----------|-------|-------|-------|-------|


----------------------------------------------------|
--7--7--7-----------7--7--7-----7--7--7-----7--7----|
----------------------------------------------------|
----------------------------------------------------|
----------------------------------------------------|
----------------------------------------------------|


----------------------------------------------------|
--7-----------7--7--7-----7--7--7-----7--7--7-------|
----------------------------------------------------|
----------------------------------------------------|
----------------------------------------------------|
----------------------------------------------------|


----------------------------------------------------|
--7--7--7-----------7--7--7-----7--7--7-----7--7----|
----------------------------------------------------|
----------------------------------------------------|
----------------------------------------------------|
----------------------------------------------------|


----------------------------------------------------|
--7-----------7--7--7-----7--7--7-------------------|
----------------------------------------------------|
----------------------------------------------------|
----------------------------------------------------|
----------------------------------------------------|


----------------------------------------------------|
----------------------------------------------------|
--9--9--------6--6--------9--9--------6--6----------|
--------7--7--------7--7--------7--7--------7--7----|
----------------------------------------------------|
----------------------------------------------------|


----------------------------------------------------|
----------------------------------------------------|
--9--9--------6--6--------9--9--------6--6----------|
--------7--7--------7--7--------7--7--------7--7----|
----------------------------------------------------|
----------------------------------------------------|


----------------------------------------------------|
--7--7--------------------7--7----------------------|
--------6--6--9--9--6--6--------6--6--9--9--6--6----|
----------------------------------------------------|
----------------------------------------------------|
----------------------------------------------------|


----------------------------------------------------|--9~---|-------|--12~--|
--7--7--------9--9--------7--7----------------------|-------|--12~--|-------|
--------6--6--------6--6--------6--6--9--9--6--6----|-------|-------|-------|
----------------------------------------------------|-------|-------|-------|
----------------------------------------------------|-------|-------|-------|
----------------------------------------------------|-------|-------|-------|


--11~-----|-------|-------|-------|-------|----|--------------------9--7----|
-----12~--|--9~---|-------|-------|-------|----|--10L---------10-7----------|
----------|-------|--11~--|-------|-------|----|----------------------------|
----------|-------|-------|--11~--|--11~--|----|----------------------------|
----------|-------|-------|-------|-------|----|----------------------------|
----------|-------|-------|-------|-------|----|----------------------------|


----------------------|----------------------------|----------|----------------|
--9--------10-7-------|-----------------------10L--|--10-9----|----------------|
-----------------9----|--8-----------8--9--11------|----------|----------------|
----------------------|----------------------------|----------|-----11-7--9----|
----------------------|----------------------------|----------|--9-------------|
----------------------|----------------------------|----------|----------------|


----------------|
----------------|
----------------|
-----11-7--9----|
--9-------------|
----------------|


--------------------------------------------------------------------------------
--------------------------------------------------------------------------------
--------------------------------------------------------------------------------
--------------------------------------------------------------------------------
--------------------------------------------------------------------------------
--------------------------------------------------------------------------------


-----------------------|----------------------------|-------|-------|--9----|
------12h13------------|--12-10----10-10-12---------|--7----|--10---|-------|
-----------------------|--------11------------------|-------|-------|-------|
-----------------------|----------------------------|-------|-------|-------|
-----------------------|----------------------------|-------|-------|-------|
-----------------------|----------------------------|-------|-------|-------|


----------|----------------------------|-------|-------|-------|----|----|----||
----------|--7L----------7--7--9--10---|--12---|--14---|--14---|----|----|----||
--9--10---|----------------------------|-------|-------|-------|----|----|----||
----------|----------------------------|-------|-------|-------|----|----|----||
----------|----------------------------|-------|-------|-------|----|----|----||
----------|----------------------------|-------|-------|-------|----|----|----||


BASS


G |----|-------|----------------------------|----------------------------|
D |----|--4----|--2-----------------2--4----|-----------------------0L---|
A |----|-------|----------------------------|--2-----------2--4--2-------|
E |----|-------|----------------------------|----------------------------|


----------------------------|-------|-------|-------|
--0L----------0L----0--2----|--4----|--2----|--0L---|
--------------------4-------|-------|-------|-------|
----------------------------|-------|-------|-------|


----------------------------|-------|----------------------------|
--0--------------0--2-------|--4----|--2-----------------2--4----|
----------------------------|-------|----------------------------|
----------------------------|-------|----------------------------|


----------------------------|----------------------------|-------|-------|
-----------------------0L---|--0L----------0L----0--2----|--4----|--2----|
--2-----------2--4--2-------|--------------------4-------|-------|-------|
----------------------------|----------------------------|-------|-------|


-------|----------------------------|-------|----------------------------|
--0L---|--0--------------0--2-------|--4----|--2-----------------2--4----|
-------|----------------------------|-------|----------------------------|
-------|----------------------------|-------|----------------------------|


----------------------------|----------------|----------------------------|
--0-------------------------|----------------|--4-----------------4--3----|
-----------------------3----|--4-----4-------|----------------------------|
----------------------------|-----------4----|----------------------------|


----------------------------|-------|--6----|-------|
--2-----------------2--1----|--0----|-------|--4----|
----------------------------|-------|-------|-------|
----------------------------|-------|-------|-------|


----------------------------|----------------------------|
--2-----------------2--4----|-----------------------0L---|
----------------------------|--2-----------2--4--2-------|
----------------------------|----------------------------|


----------------------------|-------|-------|-------|
--0L----------0L----0--2----|--4----|--2----|--0L---|
--------------------4-------|-------|-------|-------|
----------------------------|-------|-------|-------|


----------------------------|-------|----------------------------|
--0--------------0--2-------|--4----|--2-----------------2--4----|
----------------------------|-------|----------------------------|
----------------------------|-------|----------------------------|


----------------------------|----------------|----------------------------|
--0-------------------------|----------------|--4-----------------4--3----|
-----------------------3----|--4-----4-------|----------------------------|
----------------------------|-----------4----|----------------------------|


----------------------------|-------|--6----|
--2-----------------2--1----|--0----|-------|
----------------------------|-------|-------|
----------------------------|-------|-------|


----------------------------------------------------|
----------------------------------------------------|
--5--5--5--5-----5-----5-----5-----5--5-----5-------|
----------------------------------------------------|


----------------------------------------------------|-----1--2--4----|
--2--2--2--2-----2-----2-----2-----2--2-----2-------|--4-------------|
----------------------------------------------------|----------------|
----------------------------------------------------|----------------|


----------------------------------------------------|
--------------------------------------6-------------|
--4-----4--4-----4--4-----4--4-----4----------------|
----------------------------------------------------|


--------------------------------------------------------------------------------
--4-----------------------4-----------4-----------4-----------------------4-----
--------------------------------------------------------------------------------
--------------------------------------------------------------------------------


--------------------------------------------------------------------------------
------4-----------4-----------------------4-----------4-----------4-------------
--------------------------------------------------------------------------------
--------------------------------------------------------------------------------


------------------------------------|
----------4-----------4-------------|
------------------------------------|
------------------------------------|


--------------------------------------------------------------------------------
--4-----------------------4-----------4-----------4-----------------------4-----
--------------------------------------------------------------------------------
--------------------------------------------------------------------------------


--------------------------------------------------------------------------------
------4-----------4-----------------------4-----------4-----------4-------------
--------------------------------------------------------------------------------
--------------------------------------------------------------------------------


------------------------------------|
----------4-----------4-------------|
------------------------------------|
------------------------------------|


--------------------------------------------------------------------------------
--4-----------------------4-----------4-----------4-----------------------4-----
--------------------------------------------------------------------------------
--------------------------------------------------------------------------------


--------------------------------------------------------------------------------
------4-----------4-----------------------4-----------4-----------4-------------
--------------------------------------------------------------------------------
--------------------------------------------------------------------------------


------------------------------------|
----------4-----------4-------------|
------------------------------------|
------------------------------------|


--------------------------------------------------------------------------------
--4-----------------------4-----------4-----------4-----------------------4-----
--------------------------------------------------------------------------------
--------------------------------------------------------------------------------


--------------------------------------------------------------------------------
------4-----------4-----------------------4-----------4-----------4-------------
--------------------------------------------------------------------------------
--------------------------------------------------------------------------------


------------------------------------|
----------4-----------4-------------|
------------------------------------|
------------------------------------|


--------------------------------------------------------------------------------
--7-----------------------7-----------7-----------7-----------------------7-----
--------------------------------------------------------------------------------
--------------------------------------------------------------------------------


--------------------------------------------------------------------------------
------7-----------7-----------------------7-----------7-----------7-------------
--------------------------------------------------------------------------------
--------------------------------------------------------------------------------


------------------------------------|
----------7-----------7-------------|
------------------------------------|
------------------------------------|


--------------------------------------------------------------------------------
--9-----------------------9-----------9-----------9-----------------------9-----
--------------------------------------------------------------------------------
--------------------------------------------------------------------------------


--------------------------------------------------------------------------------
------9-----------9-----------------------9-----------9-----------9-------------
--------------------------------------------------------------------------------
--------------------------------------------------------------------------------


------------------------------------|
----------9-----------9-------------|
------------------------------------|
------------------------------------|


--------------------------------------------------------------------------------
--------------------------------------------------------------------------------
--4-----------------------4-----------4-----------4-----------------------4-----
--------------------------------------------------------------------------------


--------------------------------------------------------------------------------
--------------------------------------------------------------------------------
------4-----------4-----------------------4-----------4-----------4-------------
--------------------------------------------------------------------------------


------------------------------------|
------------------------------------|
----------4-----------4-------------|
------------------------------------|


--------------------------------------------------------------------------------
--------------------------------------------------------------------------------
--4-----------------------4-----------4-----------4-----------------------4-----
--------------------------------------------------------------------------------


--------------------------------------------------------------------------------
--------------------------------------------------------------------------------
------4-----------4-----------------------4-----------4-----------4-------------
--------------------------------------------------------------------------------


------------------------------------|
------------------------------------|
----------4-----------4-------------|
------------------------------------|


--------------------------------------------------------------------------------
--7-----------------------7-----------7-----------7-----------------------7-----
--------------------------------------------------------------------------------
--------------------------------------------------------------------------------


--------------------------------------------------------------------------------
------7-----------7-----------------------7-----------7-----------7-------------
--------------------------------------------------------------------------------
--------------------------------------------------------------------------------


------------------------------------|
----------7-----------7-------------|
------------------------------------|
------------------------------------|


--------------------------------------------------------------------------------
--9-----------------------9-----------9-----------9-----------------------9-----
--------------------------------------------------------------------------------
--------------------------------------------------------------------------------


--------------------------------------------------------------------------------
------9-----------9-----------------------9-----------9-----------9-------------
--------------------------------------------------------------------------------
--------------------------------------------------------------------------------


------------------------------------|
----------9-----------9-------------|
------------------------------------|
------------------------------------|


--------------------------------------------------------------------------------
--11----------------------11----------11----------11----------------------11----
--------------------------------------------------------------------------------
--------------------------------------------------------------------------------


--------------------------------------------------------------------------------
------11----------11----------------------11----------11----------11------------
--------------------------------------------------------------------------------
--------------------------------------------------------------------------------


------------------------------------|
----------11----------11------------|
------------------------------------|
------------------------------------|


--------------------------------------------------------------------------------
--11----------------------11----------11----------11----------------------11----
--------------------------------------------------------------------------------
--------------------------------------------------------------------------------


--------------------------------------------------------------------------------
------11----------9-----------------------9-----------9-----------9-------------
--------------------------------------------------------------------------------
--------------------------------------------------------------------------------


------------------------------------|
----------9-----------9-------------|
------------------------------------|
------------------------------------|


--------------------------------------------------------------------------------
--7-----------------------7-----------7-----------7-----------------------7-----
--------------------------------------------------------------------------------
--------------------------------------------------------------------------------


--------------------------------------------------------------------------------
------7-----------7-----------------------7-----------7-----------7-------------
--------------------------------------------------------------------------------
--------------------------------------------------------------------------------


------------------------------------|
----------7-----------7-------------|
------------------------------------|
------------------------------------|


--------------------------------------------------------------------------------
--9-----------------------9-----------9-----------9-----------------------9-----
--------------------------------------------------------------------------------
--------------------------------------------------------------------------------


--------------------------------------------------------------------------------
------9-----------9-----------------------9-----------9-----------9-------------
--------------------------------------------------------------------------------
--------------------------------------------------------------------------------


------------------------------------|
----------9-----------9-------------|
------------------------------------|
------------------------------------|


--------------------------------------------------------------------------------
--------------------------------------------------------------------------------
--4-----------------------4-----------4-----------4-----------------------4-----
--------------------------------------------------------------------------------


--------------------------------------------------------------------------------
--------------------------------------------------------------------------------
------4-----------4-----------------------4-----------4-----------4-------------
--------------------------------------------------------------------------------


------------------------------------|
------------------------------------|
----------4-----------4-------------|
------------------------------------|


--------------------------------------------------------------------------------
--------------------------------------------------------------------------------
--4-----------------------4-----------4-----------4-----------------------4-----
--------------------------------------------------------------------------------


--------------------------------------------------------------------------------
--------------------------------------------------------------------------------
------4-----------4-------------------------------------------------------------
--------------------------------------------------------------------------------


------------------------------------|
------------------------------------|
------------------------------------|
------------------------------------|


--------------------------------------------------------------------------------
--4-----------------------4-----------4-----------4-----------------------4-----
--------------------------------------------------------------------------------
--------------------------------------------------------------------------------


--------------------------------------------------------------------------------
------4-----------4-----------------------4-----------4-----------4-------------
--------------------------------------------------------------------------------
--------------------------------------------------------------------------------


------------------------------------|
----------4-----------4-------------|
------------------------------------|
------------------------------------|


--------------------------------------------------------------------------------
--4-----------------------4-----------4-----------4-----------------------4-----
--------------------------------------------------------------------------------
--------------------------------------------------------------------------------


--------------------------------------------------------------------------------
------4-----------4-----------------------4-----------4-----------4-------------
--------------------------------------------------------------------------------
--------------------------------------------------------------------------------


------------------------------------|
----------4-----------4-------------|
------------------------------------|
------------------------------------|


--------------------------------------------------------------------------------
--4-----------------------4-----------4-----------4-----------------------4-----
--------------------------------------------------------------------------------
--------------------------------------------------------------------------------


--------------------------------------------------------------------------------
------4-----------4-----------------------4-----------4-----------4-------------
--------------------------------------------------------------------------------
--------------------------------------------------------------------------------


------------------------------------|
----------4-----------4-------------|
------------------------------------|
------------------------------------|


--------------------------------------------------------------------------------
--4-----------------------4-----------4-----------4-----------------------4-----
--------------------------------------------------------------------------------
--------------------------------------------------------------------------------


--------------------------------------------------------------------------------
------4-----------4-----------------------4-----------4-----------4-------------
--------------------------------------------------------------------------------
--------------------------------------------------------------------------------


------------------------------------|
----------4-----------4-------------|
------------------------------------|
------------------------------------|


--------------------------------------------------------------------------------
--7-----------------------7-----------7-----------7-----------------------7-----
--------------------------------------------------------------------------------
--------------------------------------------------------------------------------


--------------------------------------------------------------------------------
------7-----------7-----------------------7-----------7-----------7-------------
--------------------------------------------------------------------------------
--------------------------------------------------------------------------------


------------------------------------|
----------7-----------7-------------|
------------------------------------|
------------------------------------|


--------------------------------------------------------------------------------
--9-----------------------9-----------9-----------9-----------------------9-----
--------------------------------------------------------------------------------
--------------------------------------------------------------------------------


--------------------------------------------------------------------------------
------9-----------9-----------------------9-----------9-----------9-------------
--------------------------------------------------------------------------------
--------------------------------------------------------------------------------


------------------------------------|
----------9-----------9-------------|
------------------------------------|
------------------------------------|


--------------------------------------------------------------------------------
--------------------------------------------------------------------------------
--4-----------------------4-----------4-----------4-----------------------4-----
--------------------------------------------------------------------------------


--------------------------------------------------------------------------------
--------------------------------------------------------------------------------
------4-----------4-----------------------4-----------4-----------4-------------
--------------------------------------------------------------------------------


------------------------------------|
------------------------------------|
----------4-----------4-------------|
------------------------------------|


--------------------------------------------------------------------------------
--------------------------------------------------------------------------------
--4-----------------------4-----------4-----------4-----------------------4-----
--------------------------------------------------------------------------------


--------------------------------------------------------------------------------
--------------------------------------------------------------------------------
------4-----------4-----------------------4-----------4-----------4-------------
--------------------------------------------------------------------------------


------------------------------------|
------------------------------------|
----------4-----------4-------------|
------------------------------------|


--------------------------------------------------------------------------------
--7-----------------------7-----------7-----------7-----------------------7-----
--------------------------------------------------------------------------------
--------------------------------------------------------------------------------


--------------------------------------------------------------------------------
------7-----------7-----------------------7-----------7-----------7-------------
--------------------------------------------------------------------------------
--------------------------------------------------------------------------------


------------------------------------|
----------7-----------7-------------|
------------------------------------|
------------------------------------|


--------------------------------------------------------------------------------
--9-----------------------9-----------9-----------9-----------------------9-----
--------------------------------------------------------------------------------
--------------------------------------------------------------------------------


--------------------------------------------------------------------------------
------9-----------9-----------------------9-----------9-----------9-------------
--------------------------------------------------------------------------------
--------------------------------------------------------------------------------


------------------------------------|
----------9-----------9-------------|
------------------------------------|
------------------------------------|


--------------------------------------------------------------------------------
--11----------------------11----------11----------11----------------------11----
--------------------------------------------------------------------------------
--------------------------------------------------------------------------------


--------------------------------------------------------------------------------
------11----------11----------------------11----------11----------11------------
--------------------------------------------------------------------------------
--------------------------------------------------------------------------------


------------------------------------|
----------11----------11------------|
------------------------------------|
------------------------------------|


--------------------------------------------------------------------------------
--11----------------------11----------11----------11----------------------11----
--------------------------------------------------------------------------------
--------------------------------------------------------------------------------


--------------------------------------------------------------------------------
------11----------9-----------------------9-----------9-----------9-------------
--------------------------------------------------------------------------------
--------------------------------------------------------------------------------


------------------------------------|
----------9-----------9-------------|
------------------------------------|
------------------------------------|


--------------------------------------------------------------------------------
--7-----------------------7-----------7-----------7-----------------------7-----
--------------------------------------------------------------------------------
--------------------------------------------------------------------------------


--------------------------------------------------------------------------------
------7-----------7-----------------------7-----------7-----------7-------------
--------------------------------------------------------------------------------
--------------------------------------------------------------------------------


------------------------------------|
----------7-----------7-------------|
------------------------------------|
------------------------------------|


--------------------------------------------------------------------------------
--9-----------------------9-----------9-----------9-----------------------9-----
--------------------------------------------------------------------------------
--------------------------------------------------------------------------------


--------------------------------------------------------------------------------
------9-----------9-----------------------9-----------9-----------9-------------
--------------------------------------------------------------------------------
--------------------------------------------------------------------------------


------------------------------------|
----------9-----------9-------------|
------------------------------------|
------------------------------------|


--------------------------------------------------------------------------------
--------------------------------------------------------------------------------
--4-----------------------4-----------4-----------4-----------------------4-----
--------------------------------------------------------------------------------


--------------------------------------------------------------------------------
--------------------------------------------------------------------------------
------4-----------4-----------------------4-----------4-----------4-------------
--------------------------------------------------------------------------------


------------------------------------|
------------------------------------|
----------4-----------4-------------|
------------------------------------|


--------------------------------------------------------------------------------
--------------------------------------------------------------------------------
--4-----------------------4-----------4-----------4-----------------------4-----
--------------------------------------------------------------------------------


--------------------------------------------------------------------------------
--------------------------------------------------------------------------------
------4-----------4-------------------------------------------------------------
--------------------------------------------------------------------------------


------------------------------------|----------------------------|-------|
------------------------------------|--0--------------0--2-------|--4----|
------------------------------------|----------------------------|-------|
------------------------------------|----------------------------|-------|


----------------------------|----------------------------|
--2-----------------2--4----|-----------------------0L---|
----------------------------|--2-----------2--4--2-------|
----------------------------|----------------------------|


----------------------------|-------|-------|-------|
--0L----------0L----0--2----|--4----|--2----|--0L---|
--------------------4-------|-------|-------|-------|
----------------------------|-------|-------|-------|


----------------------------|-------|----------------------------|
--0--------------0--2-------|--4----|--2-----------------2--4----|
----------------------------|-------|----------------------------|
----------------------------|-------|----------------------------|


----------------------------|----------------|----------------------------|
--0-------------------------|----------------|--4-----------------4--3----|
-----------------------3----|--4-----4-------|----------------------------|
----------------------------|-----------4----|----------------------------|


----------------------------|-------|--6----|----|----|----||
--2-----------------2--1----|--0----|-------|----|----|----||
----------------------------|-------|-------|----|----|----||
----------------------------|-------|-------|----|----|----||

Login or Register to remove this ad.