Ads

Needle Man (Mega Man 3) Guitar Tab

Submitted: Dec 23, 2014 by ltm_1988

5
Average: 5 (1 vote)
Download | Listen
Game: Mega Man 3
Composer(s): Yasuaki Fujita
Style: Arrangement, Fingerstyle
Series: Mega Man

AutoScroll: Slow | Medium | Fast
Needle Man
Mega Man 3
Harumi Fujita
ltm_1988
12/22/2014

    S S E   E   E   E   S Q       S   S S E   E   E   E   S E   S S S
E||---------------------------------|---------------------------------|
B||---------------------------------|---------------------------------|
G||---------------------------------|---------------------------------|
D||---------1-------1-----1~--------|---------1-------1-----1---2-1---|
A||---1-4-------4-------4---------1-|---1-4-------4-------4---------4-|
E||---------------------------------|---------------------------------|

    S S E   E   E   E   S Q       S   S S E   E   E   E   S E   S S S
E||---------------------------------|---------------------------------|
B||---------------------------------|---------------------------------|
G||---------------------------------|---------------------------------|
D||---------1-------1-----1~--------|---------1-------1-----1---2-1---|
A||---1-4-------4-------4---------1-|---1-4-------4-------4---------4-|
E||---------------------------------|---------------------------------|

    E   E   E   S E   S E   E   E     E   E   E   S E   S E   E   E
E||-6-------4---5-6---6-----4---5---|-6-------4---5-6---6-----4---5---|
B||-----6---------------6-----------|-----6---------------6-----------|
G||---------------------------------|---------------------------------|
D||---------------------------------|---------------------------------|
A||-3-------------------------------|-4-------------------------------|
E||-----------------------------6---|---------------------------------|

    E   E   E   S E   S E   E   E     E   E   E   S E   S E   E   E
E||-6-------4---5-6---6-----4---5---|-6-------4---5-6---6-----4---5---|
B||-----6---------------6-----------|-----6---------------6-----------|
G||---------------------------------|---------------------------------|
D||---------------------------------|---------------------------------|
A||-3-------------------------------|-4-------------------------------|
E||-----------------------------6---|---------------------------------|

    E   E   E   S E   S E   E   E     E   E   E   S E   S E   E   E
E||-6-------4---5-6---6-----4---5---|-6-------4---5-6---6-----4---5---|
B||-----6---------------6-----------|-----6---------------6-----------|
G||---------------------------------|---------------------------------|
D||---------------------------------|---------------------------------|
A||-3-------------------------------|-4-------------------------------|
E||-----------------------------6---|---------------------------------|

    S S S S S S S S S S S S S S S S   W
E||---6-4---4-----------------------|---------------------------------|
B||-------6---6-4---4-------------6~|---------------------------------|
G||---------------6---6-3---3-------|---------------------------------|
D||-----------------------6---3-6---|---------------------------------|
A||---------------------------------|---------------------------------|
E||-------------------------------6-|---------------------------------|

    S S E   E   S S S S S S E   E     S S E   E   S S S S E   E   E
E||---------------------------------|---------------------------------|
B||---------------------------------|-----------------2---1-----------|
G||*--3-----1-------1-----3~--------|---3-----1---3-----------3---1---|
D||*------------3-------------------|---------------------------------|
A||-1-----------0-1---1---------0---|-1-----------0-1---1---------0---|
E||-----1---4-----------1---4-------|-----1---4-----------1---4-------|

    E   E   E   S E   S E   E   E     E   E   E   E   E   E   E   E
E||---------------------------------|---------------------------------|
B||---------------------------------|---------------------------------|
G||---------------------------------|---------------------------------|
D||-3~------------------------------|---------------------------------|
A||-1-----------0-1---1---------0---|---------1---------------1---3---|
E||-----1---4-----------1---4-------|-1---1-------1---2---4-----------|

    Q.          E   Q.          E     E   E   E   E   E   E   E   E
E||---------------------------------|---------------------------------|
B||---------------------------------|---------------------------------|
G||---------------------------------|---------------------------------|
D||-1~----------3-------------------|-----------------1---------------|
A||-----------------4~--------------|-------------4-------4---3---4---|
E||-2-----------1---2-----------1---|-----2---3-----------2---3---5---|

    E   E   E   Q       E   E   E     Q       Q       Q       E.    S
E||---------------------------------|---------------------------------|
B||---------------------------------|---------------------------------|
G||---------------------------------|-1~------------------------------|
D||-3~------------------------------|---------------------------------|
A||---------1---4---------------0---|-------------------------------1-|
E||-1---4---------------1---4-------|-1-------1-------1-------4-------|

    S S E   E   S S S S S S E   E     S S E   E   S S S S E   E   E
E||---------------------------------|---------------------------------|
B||---------------------------------|-----------------2---1-----------|
G||---3-----1-------1-----3~--------|---3-----1---3-----------3---1---|
D||-------------3-------------------|---------------------------------|
A||-1-----------0-1---1---------0---|-1-----------0-1---1---------0---|
E||-----1---4-----------1---4-------|-----1---4-----------1---4-------|

    E   E   E   S E   S S S E   E     E   E   E   S S E   E   E   E
E||---------------------------------|---------------------------------|
B||---------------------------------|---------------------------------|
G||-------------------------1-------|---------------------------------|
D||-3~------------------3-4-----1---|-3~----------------------1-------|
A||-1-----------0-1---1---------0---|---------1-------4-----------1---|
E||-----1---4-----------1---4-------|-1---1-------1-1-----1---4-------|

    Q.          S E   S Q       E     E   E   E   E   E   E   E   E
E||---------------------------------|---------------------------------|
B||---------------------------------|---------------------------------|
G||---------------------------------|---------------------------------|
D||-3~------------------1-----------|-1~----------------------1-------|
A||-----------------------------4---|-2-----------0---4-----------0---|
E||-2-----------1-2---2---------1---|-----2---3-----------2---3-------|

    E   E   E   E   E   E   E   E     Q       Q       Q       E   S S
E||---------------------------------|---------------------------------|
B||---------------------------------|-1~--------------4~--------------|
G||-----------------2~------1---2---|---------------------------------|
D||-3~--------------1---3-----------|-----------------------------4---|
A||---------1---4-------------------|---------------------------------|
E||-1---4---------------------------|-1-------1-------1-------4-----2-|

    E   S S E   E   E   S S E   E     S S E   E   E   E   E   E   E
E||-----------------------1~--------|---------------------1~----------|
B||-----------------2---------------|-----------------2-----------4---|
G||-------------3-------------------|-------------3-------------------|
D||-----3---4-----------3-------4---|-----3---4-----------3-----------|
A||---------------------------------|---------------------------------|
E||-2-----2-2-------1-------2---2---|---2-2---2-------1-------1---1---|

    E   S S Q       E   E   E   E     S S E   E   E   E   E   E   E
E||---------------------------------|---------------------------------|
B||-----1---------------------------|---------------------------------|
G||---------1~----------------------|---------------------------------|
D||---------------------3-----------|-----------------------------4---|
A||-----------------------------2---|---2-2---1---1-------------------|
E||-------1-1-------1-------1-------|-----------------4---4---3---2---|

    E   S S E   E   E   S S E   E     S S E   E   E   E   E   E   E
E||-----------------------1~--------|---------------------1~------4---|
B||-----------------2---------------|-----------------2---------------|
G||-------------3-------------------|-------------3-------------------|
D||-----3---4-----------3-------4---|-----3---4-----------3-----------|
A||---------------------------------|---------------------------------|
E||-------2-2-------1-------2---2---|---2-2---2-------1-------1---1---|

    E   E   E   E   E   E   E   E     Q       Q       Q       Q
E||---------1~----------------------|---------------------------------|
B||-----4---------------------------|---------------------------------|
G||---------------------------------|---------------------------------|
D||---------------------------------|-3-------3-------3-------3-------|
A||-----------------0-------3-------|---------------------------------|
E||-----1---4---1-------1-------1---|---------------------------------|

    S S E   E   S S E   E   E.    S   S S E   E   E   E   E   E   S S
E||---1-----------------------------|---6-----4-------4-------------1~|
B||---------4---2---4---2---1-------|-------------6-------6---4-------|
G||-------------------------------3~|---------------------------------|
D||---------------------------------|-4---4---4---4---6---6---3---3---|
A||---1-1-------0-1-----------------|---------------------------------|
E||---------4-----------1-----------|---------------------------------|

    S S E   E   S S E   E   E.    S   S S E   E   E   E   E   E   S S
E||---1-----------------------------|---6-----4---6---9---8---6-----6~|
B||---------4---2---4---2---1-------|-----------------------------9---|
G||-------------------------------3~|---------------------------------|
D||---------------------------------|-4---4---4---4---6---6-----------|
A||---1-1-------0-1-----------------|-------------------------8---8---|
E||---------4-----------1-----------|---------------------------------|

    S E.    E   E   E   E   E.    S   S E.    E   E   E   E   Q
E||---------------------------------|---9-----8---6---8---6---4-------|
B||---6-----4---2---4---2---1-------|---------------------------------|
G||---------3-------2-------2-----3-|---------------------------------|
D||-8-------------------------------|-6-------6---------------4-------|
A||---------------------------------|-----------------9---------------|
E||---------------------------------|---------------------------------|

    W                                 S E.    S E.    S E.    E   E   x3 W
E||-1~------------------------------|---1-------1-------1-----1---4---||-6-
B||---------------------------------|---------------------------------||-6-
G||---------------------------------|--------------------------------*||-6-
D||---------------------------------|---3-------3-------3-----3---3--*||-8-
A||---------------------------------|---------------------------------||-8-
E||-1-------------------------------|-1-------1-------1---------------||-6-
Login or Register to remove this ad.

1 comment on Needle Man

Amazing tab

5

As with pretty much every other one of your megaman tabs they're very on point although usually realll hard.