Ads

Dr. Wily Stage 2 (Mega Man 3) Bass/Guitar Tab

Submitted: Jul 23, 2012 by Jacob31593 (Last updated: Jul 23, 2012)

5
Average: 5 (4 votes)
Download | Listen
Game: Mega Man 3
Composer(s): Yasuaki Fujita
Style: 2 or more instruments, Arrangement, Transcription
Series: Mega Man

AutoScroll: Slow | Medium | Fast

Dr. Wily Stage 2 Mega Man 3
Composed by Yasuaki Fujita
Tabbed by Jacob31593
July 23rd 2012

inspired by actual events
bass transposed down

150 BPM

Lead

      S S  S S  S S  S S  S S  S S  S S  S  S      E  E  E  E  E  E  E   E     E  E   E  E   E   E   E  E   
E||-------------------------------------------||----------------------------|------------------------------|
B||-------10-8------10-8------10-8------------||----------------------------|------------------------------|
G||--11-9------11-9------11-9------11-9-------||*--9-----9--------9---------|------------------------------|
D||-------------------------------------12-11-||*-----------------------12--|-----9--11--9--11--12--11--9--|
A||-------------------------------------------||----------------------------|------------------------------|
E||-------------------------------------------||----------------------------|------------------------------|


  E  E  E  E  E  E  E   E     E  E   E  E   E   E   E  E      E  E   E  E  E   E  E   E   
---------------------------|------------------------------|------------------------------|
---------------------------|------------------------------|------------------------------|
--9-----9--------9---------|------------------------------|--11-----11--------11---------|
-----------------------12--|-----9--11--9--11--12--11--9--|--------------------------12--|
---------------------------|------------------------------|------------------------------|
---------------------------|------------------------------|------------------------------|


  E  E  E  S  S  E   E   E  E      E  E   E  E  E   E  E   E      Q.      S  S H         
-------------------------------|------------------------------|-------------------------|
-------------------------------|------------------------------|-------------------------|
----------------------------9--|--11-----11--------11-----11--|--11------12-11-9--------|
-----------9-11-12--11--12-----|------------------------------|-------------------------|
-------------------------------|------------------------------|-------------------------|
-------------------------------|------------------------------|-------------------------|


  H         H            H        H            H.            E   S  S     H.            E  S  S  
---------------------|---------------------|--------------------------|-------------------------|
---------------------|---------------------|-----------------------10-|-------------------------|
---------------------|------------9--------|--11~------------L--12----|--11~------------L--9----|
--9--------11--------|--12-----------------|--------------------------|----------------------12-|
---------------------|---------------------|--------------------------|-------------------------|
---------------------|---------------------|--------------------------|-------------------------|


  H.            E  E     H.            E  S  S     H.            E   E      W                  
----------------------|------------------------|------------------------|---------------------|
----------------------|------------------------|------------------------|---------------------|
--9~------------L-----|------------------------|------------------------|---------------------|
-------------------9--|--9~------------L--9-12-|--12~------------L--11--|--11~----------------|
----------------------|------------------------|------------------------|---------------------|
----------------------|------------------------|------------------------|---------------------|


  H         H            H        H            H.            E   S  S     H.            E  S  S  
---------------------|---------------------|--------------------------|-------------------------|
---------------------|---------------------|-----------------------10-|-------------------------|
---------------------|------------9--------|--11~------------L--12----|--11~------------L--9----|
--9--------11--------|--12-----------------|--------------------------|----------------------12-|
---------------------|---------------------|--------------------------|-------------------------|
---------------------|---------------------|--------------------------|-------------------------|


  H.            E  E     H.            E  S  S     H.            E   E      W                  4x
----------------------|------------------------|------------------------|----------------------||
----------------------|------------------------|------------------------|----------------------||
--9~------------L-----|------------------------|------------------------|---------------------*||
-------------------9--|--9~------------L--9-12-|--12~------------L--11--|--11~----------------*||
----------------------|------------------------|------------------------|----------------------||
----------------------|------------------------|------------------------|----------------------||


Harmony

      S  S  S S  S  S  S S  S  S  S S  S S S S      E  E  E  E  E  E  E  E   
E||--------------------------------------------||---------------------------|
B||--------------------------------------------||---------------------------|
G||--------11-9-------11-9-------11-9----------||*--------------------------|
D||--12-11------12-11------12-11------12-------||*--7-----7--------7-----7--|
A||--------------------------------------------||---------------------------|
E||--------------------------------------------||---------------------------|


  E   E   E   E   E   E   E   E     E  E  E  E  E  E  E  E     E   E   E   E   E   E   E   E   
---------------------------------|--------------------------|---------------------------------|
---------------------------------|--------------------------|---------------------------------|
---------------------------------|--------------------------|---------------------------------|
---------------------------------|--7-----7--------7-----7--|---------------------------------|
-----10--10--10--10--10--10--10--|--------------------------|-----10--10--10--10--10--10--10--|
---------------------------------|--------------------------|---------------------------------|


  E  E  E  E  E  E  E  E      E   E   E   E   E   E   E   E     E  E  E  E  E  E  E  E   
--------------------------|----------------------------------|--------------------------|
--------------------------|----------------------------------|--------------------------|
--------------------------|----------------------------------|--------------------------|
--9-----9--------9-----9--|----------------------------------|--9-----9--------9-----9--|
--------------------------|--10--10--10--10--10--10--10--10--|--------------------------|
--------------------------|----------------------------------|--------------------------|


  E  E  Q    E  E  Q       E  E  E  E  E  E  E  E     E  E  E  E  E  E  E  E   
------------------------|--------------------------|--------------------------|
------------------------|--------------------------|--------------------------|
------------------------|--------------------------|--------------------------|
--9--9--9----8--8--8----|--------------------------|--------------------------|
------------------------|--9--9--9--9--9--9--9--9--|--9--9--9--9--9--9--9--9--|
------------------------|--------------------------|--------------------------|


   E   E   E   E   E   E   E   E      E   E   E   E   E   E   E   E     E  E  E  E  E  E  E  E   
----------------------------------|----------------------------------|--------------------------|
----------------------------------|----------------------------------|--------------------------|
----------------------------------|----------------------------------|--------------------------|
----------------------------------|----------------------------------|--------------------------|
----------------------------------|----------------------------------|--7--7--7--7--7--7--7--7--|
--10--10--10--10--10--10--10--10--|--10--10--10--10--10--10--10--10--|--------------------------|


  E  E  E  E  E  E  E  E     E  E  E  E  E  E  E  E     E  E  E  E  E  E  E  E     E  E  E  E  E  E  E  E   
--------------------------|--------------------------|--------------------------|--------------------------|
--------------------------|--------------------------|--------------------------|--------------------------|
--------------------------|--------------------------|--------------------------|--------------------------|
--------------------------|--------------------------|--------------------------|--------------------------|
--7--7--7--7--7--7--7--7--|--------------------------|--------------------------|--9--9--9--9--9--9--9--9--|
--------------------------|--7--7--7--7--7--7--7--7--|--6--6--6--6--6--6--6--6--|--------------------------|


  E  E  E  E  E  E  E  E      E   E   E   E   E   E   E   E      E   E   E   E   E   E   E   E   
--------------------------|----------------------------------|----------------------------------|
--------------------------|----------------------------------|----------------------------------|
--------------------------|----------------------------------|----------------------------------|
--------------------------|----------------------------------|----------------------------------|
--9--9--9--9--9--9--9--9--|----------------------------------|----------------------------------|
--------------------------|--10--10--10--10--10--10--10--10--|--10--10--10--10--10--10--10--10--|


  E  E  E  E  E  E  E  E     E  E  E  E  E  E  E  E     E  E  E  E  E  E  E  E     E  E  E  E  E  E  E  E   4x
--------------------------|--------------------------|--------------------------|---------------------------||
--------------------------|--------------------------|--------------------------|---------------------------||
--------------------------|--------------------------|--------------------------|--------------------------*||
--------------------------|--------------------------|--------------------------|--------------------------*||
--7--7--7--7--7--7--7--7--|--7--7--7--7--7--7--7--7--|--------------------------|---------------------------||
--------------------------|--------------------------|--7--7--7--7--7--7--7--7--|--6--6--6--6--6--6--6--6---||



Bass

     Q    Q     Q    Q         E  E  E  E  E  E  E  E     E  E  E  E  E  E  E  E     E  E  E  E  E  E  E  E   
G||-----------------------||---------------------------|--------------------------|--------------------------|
D||--9----7---------------||*--9--9--9--9--9--9--9--9--|--9--9--9--9--9--9--9--9--|--9--9--9--9--9--9--9--9--|
A||------------10----9----||*--------------------------|--------------------------|--------------------------|
E||-----------------------||---------------------------|--------------------------|--------------------------|


  E  E  E  E  E  E  E  E      E   E   E   E   E   E   E   E      E   E   E   E   E   E   E   E   
--------------------------|----------------------------------|----------------------------------|
--9--9--9--9--9--9--7--7--|----------------------------------|----------------------------------|
--------------------------|--10--10--10--10--10--10--10--10--|--10--10--10--10--10--10--10--10--|
--------------------------|----------------------------------|----------------------------------|


   E   E   E   E   E   E   E   E     E  E  E  E  E  E  E  E     E  E  E  E  E  E  E  E   
----------------------------------|--------------------------|--------------------------|
----------------------------------|--------------------------|--9--9--9--9--9--9--9--9--|
--10--10--10--10--10--10--10--10--|--9--9--9--9--9--9--9--9--|--------------------------|
----------------------------------|--------------------------|--------------------------|


  E  E  E  E  E  E  E  E     E  E  E  E  E  E  E  E     E  E  E  E  E  E  E  E   
--------------------------|--------------------------|--------------------------|
--9--9--9--9--9--9--9--9--|--7--7--7--7--7--7--7--7--|--7--7--7--7--7--7--7--7--|
--------------------------|--------------------------|--------------------------|
--------------------------|--------------------------|--------------------------|


   E   E   E   E   E   E   E   E      E   E   E   E   E   E   E   E     E  E  E  E  E  E  E  E   
----------------------------------|----------------------------------|--------------------------|
----------------------------------|----------------------------------|--------------------------|
--10--10--10--10--10--10--10--10--|--10--10--10--10--10--10--10--10--|--9--9--9--9--9--9--9--9--|
----------------------------------|----------------------------------|--------------------------|


  E  E  E  E  E  E  E  E     E  E  E  E  E  E  E  E     E  E  E  E  E  E  E  E     E  E  E  E  E  E  E  E   
--------------------------|--------------------------|--------------------------|--------------------------|
--------------------------|--9--9--9--9--9--9--9--9--|--9--9--9--9--9--9--9--9--|--7--7--7--7--7--7--7--7--|
--9--9--9--9--9--9--9--9--|--------------------------|--------------------------|--------------------------|
--------------------------|--------------------------|--------------------------|--------------------------|


  E  E  E  E  E  E  E  E      E   E   E   E   E   E   E   E      E   E   E   E   E   E   E   E   
--------------------------|----------------------------------|----------------------------------|
--7--7--7--7--7--7--7--7--|----------------------------------|----------------------------------|
--------------------------|--10--10--10--10--10--10--10--10--|--10--10--10--10--10--10--10--10--|
--------------------------|----------------------------------|----------------------------------|


  E  E  E  E  E  E  E  E     E  E  E  E  E  E  E  E   4x
--------------------------|---------------------------||
--------------------------|--------------------------*||
--9--9--9--9--9--9--9--9--|--9--9--9--9--9--9--9--9--*||
--------------------------|---------------------------||




Duration Legend
---------------
W - whole
H - half
Q - quarter
E - 8th
S - 16th
. - note dotted

Tablature Legend
----------------
L - tied note
~ - vibrato
Login or Register to remove this ad.