Ads

Opening (Mega Man 2) Guitar Tab

Submitted: Apr 27, 2013 by Alfa_ice

5
Average: 5 (4 votes)
Download | Listen
Game: Mega Man 2
Composer(s): Manami Ietel, Manami Matsumae, Ogeretsu Kun
Style: Arrangement, Fingerstyle
Series: Mega Man

AutoScroll: Slow | Medium | Fast
                              Mega Man 2 - Intro                                

Tabbed by: Alfa_ice
Standard tuning: EADGBE


     E  E  E  E  Q    Q       E   E  E  E   E  Q    E     
E||------------------------|-------------------7--------||
B||-----------7--9---------|------------7--10-----------||
G||--------9---------------|---------9-----------------*||
D||-----9------------------|-----10--------------------*||
A||--7-----L--7--7---------|--7------L--7---7-----------||
E||------------------------|----------------------------||


  E  E  E  E  E  E  E  E     E   E   E  E  E   E  E   E   
--------------------------|------------------------------|
--9--------9--7-----------|------------------------------|
--------9-----------8--9--|-------------9--8-------------|
-----9-----------9--------|---------11--------11--9--11--|
--7--------L--6--------L--|-----11------L----------------|
--------------------------|--9----------L--7----------L--|


  E  E  E  E  E  E  E  E     Q    Q    E  Q    E     E  E  E  E  E  E  E  E   
--------------------------|-----------------------|--------------------------|
--------------------------|-----------------------|--------------------------|
--------------------------|--8---------L----------|--6-----L-----6--L--------|
--8--6-----6--------------|--9---------9--8-------|--------7--9-----L--7-----|
--------9--------9--8--9--|--9---------L----------|-----7--------------------|
--6--------L--9--------L--|--7---------L----------|--5-----------L-----6--L--|


  E  E  E   E  E  E  E  E     E  E  E  E  E  E  E  E   
---------------------------|--------------------------|
---------------------------|--4-----L-----4--L--------|
--8-----L------8--L--------|--------5--6--------5-----|
--------9--11-----L--9-----|-----6--------------------|
-----9---------------------|--------------------3-----|
--7------------L-----7--L--|--4-----------L-----------|


  E  E  E  E  E  E  E  E      E  E  E   E  E  E   E  E   
--------------------------|--12------------L------------|
--5-----L-----5--L--------|---------8---------8---------|
--------6--8-----L--6-----|------9---------9---------9--|
-----6--------------------|--10--------10--------10-----|
--4-----------L-----4-----|-----------------------------|
--------------------------|-----------------------------|


  E   E   E   E  E   E   E   E      E   E   E   E   E   E   E   E   
---------------------8-------L--|-------8---7---L---8--------------|
--8---8--10--12--L--------------|----------------------10-------L--|
--------------------------------|----------------------------------|
-----10-------L-----10--10--10--|--10--10--10--10--10--10--10--10--|
--------------------------------|----------------------------------|
--------------------------------|----------------------------------|


   E   E   E   E   E   E   E   E      E   E   E   E   E   E   E   E   
----------------------10-------L--|----------------------------------|
--10--10---7---L--10----------13--|---L--12---L--10---L--11-------L--|
----------------------------------|----------------------------------|
--10--10--10--10--10--12--12--12--|--12--12--12--12--12--13--13--13--|
----------------------------------|----------------------------------|
----------------------------------|----------------------------------|


   E   E   E   E   E   E   E   E      E   E   E   E   E  Q    E   
----------------------------------|----------------------8-------|
--11--11--10---L--11--------------|-------L--10---L--11----------|
----------------------12-------L--|--12--12----------------------|
--13--13--13--13--13--13--13--13--|--13--13--------------L-------|
----------------------------------|------------------------------|
----------------------------------|------------------------------|


  H         Q     Q         E  E  E  E  E  E  E  E   
--L--------15s----3----||---6--6--6--6--6--8--------|
-----------------------||---6--6--6--6--6--6-----9--|
-----------------------||*-----------------------8--|
-----------------------||*--8-----8-----8-----8-----|
-----------------------||---------------------------|
-----------------------||---------------------------|


  E  E  E  E   E  E  E  E     E  E  E  E  E  E  E  E   
---------------------------|--------------------------|
---------------L--------9--|--7--L--7--4-----4-----6--|
---------------L-----------|--8--L--8--5-----5-----7--|
--8-----8------8-----8-----|--9--------6-----6--------|
---------------------------|--------------------------|
---------------------------|--------------------------|


  E  E  E  E  E  E  E   E     E  E  E  E  E  E  E  E   
---------------------------|--6--6--6--6--6--8--------|
--------L--6--7--9------L--|--6--6--6--6--6--6-----9--|
--------L------------------|-----------------------8--|
--8-----8-----8-----8---L--|--8-----8-----8-----8-----|
---------------------------|--------------------------|
---------------------------|--------------------------|


  E  E  E  E  E  E  E  E     E  E  E   E   E   E  E   E   
--------------------------|------------------------------|
--------------L--------6--|--7--L--7---9-------9-----11--|
--------------L-----------|--8--L--8--10------10--L--12--|
--8-----8-----8-----8-----|--9--L-----11---L---------13--|
--------------------------|------------------------------|
--------------------------|------------------------------|


   E  E   E  E   S  S S  S S  S  S S      E  E  E  E   E  Q     E   
----------------13-11-9-11-9----------||-----6--------10--6----13--|
----------L------------------13--L----||--------6------------------|
----------L--------------------------*||-----------7---------------|
--13-----13---------L----------------*||------------------------8--|
--------------------------------------||---------------8--------L--|
--------------------------------------||--6---------------L--------|


   E   E   E  E   E   E  E  E     E  E  E  E  E  Q     E   
---L--11--10--8--10------------|-----4--------8--4----11--|
---------------------11--L-----|--------4-----------------|
-------------------------------|-----------5--------------|
-----------L------8------------|-----------------------6--|
-------------------------------|--------------6--------L--|
-------------------------------|--4--------------L--------|


   E   E   E   E  E  E  E  E     E  S  S S S E  S  S S S E  E   
---L--11--11--11--8-----------|-----3h-6-3------3h-6-3---------|
---------------------9--L-----|------------3-----------3-------|
------------------------------|--------------3-----------3-----|
-----------L------6-----------|-----------------------------5--|
------------------------------|-----------------5--------L-----|
------------------------------|--3-----------L-----------------|


                                  |--3--|  |--3--|  |---3--|   |---3---|   
   E   E   E   E   E   E  Q       E  E  E  E  E  E  E   E  E   E   E   E   
--15--15--15--10---------------|--------6--------8---------9----------11--|
----------------------11--L----|-----7--------9--------10---------12------|
-------------------------------|--6--------8--------9---------11----------|
---L---------------------------|------------------------------------------|
--10-------L------10---L-------|------------------------------------------|
-------------------------------|------------------------------------------|


  E  E  E  E  E   Q    E     E  E  E  E  E  E  E  E   
--------------------------|--6--6--6--6--6--8--------|
--7--7--7--7------9----L--|--6--6--6--6--6--6-----9--|
--6--6--6--6------8----L--|-----------------------8--|
--8--------8-----10-------|--8-----8-----8-----8-----|
--------------------------|--------------------------|
-----------L--------------|--------------------------|


  E  E  E  E   E  E  E  E     E  E  E  E  E  E  E  E   
---------------------------|--------------------------|
---------------L--------9--|--7--7--7--4-----4-----6--|
---------------L-----------|--8--8--8--5-----5-----7--|
--8-----8------8-----8-----|--9-----9--------------8--|
---------------------------|--------------------------|
---------------------------|--------------------------|


  E  E  E  E  E  E  E   E     E  E  E  E  E  E  E  E   
---------------------------|--6--6--6--6--6--8--------|
--------L--6--7--9------L--|--6--6--6--6--6--6-----9--|
--------L------------------|-----------------------8--|
--8-----8-----8-----8---L--|--8-----8-----8-----8-----|
---------------------------|--------------------------|
---------------------------|--------------------------|


  E  E  E  E  E  E  E  E      E  E  E  E   E  E  E  E   
--------------------------|------6------------6--------|
--------------L-----6--6--|---8--6-----6---8--6-----6--|
--------------L-----7--7--|---7--------7---7--------7--|
--8-----8-----8-----------|------8------------8--------|
--------------------8--8--|--10--------8--10--------8--|
--------------------------|----------------------------|


   E  E  E  E   E  E  Q       W                  
------6------------6--L----|--L----------------||
---8--6-----6---8--6--L----|--L----------------||
---7--------7---7----------|-------------------||
------8------------8--L----|--L----------------||
--10--------8--10----------|-------------------||
---------------------------|-------------------||




Duration Legend
---------------
W - whole
H - half
Q - quarter
E - 8th
S - 16th
|-n-|  - n-tuplets


Tablature Legend
----------------
L - tied note
h - hammer on
p - pull off
s - legato slide
Login or Register to remove this ad.