Ads

Metal Man (Mega Man 2) Guitar Tab

Submitted: Aug 28, 2014 by SolidSnake684

5
Average: 5 (1 vote)
Download | Listen
Game: Mega Man 2
Composer(s): Manami Ietel, Manami Matsumae, Ogeretsu Kun
Style: Transcription
Series: Mega Man

This song is also called Industrial Facility

AutoScroll: Slow | Medium | Fast
                              Metal Man
Tabbed by: SolidSnake684
Date: 8/26/2014
This is my first tab, so it will be a bit simplistic. Please feel free to correct me in the comments.
When i put 2 to 3 numbers together, im referring to strumming back and forth in quick succession.

Standard tuning.
e|-----------------------------------------------------------------------------
B|-----------6--4---4----------------------------------------------------------
G|-3-------6------6---6-3----1-1-3---5-6-3---6--8----6-6--8----(Repeat Once)---
D|-------------------------------------------8--10---8-8--10-------------------
A|-----------------------------------------------------------------------------
E|-----------------------------------------------------------------------------


e|-----------------------------------------------------------------------------
B|----------------------------------18-16--------------------------------------
G|-151513-15-13-15-----13-15-----15--------18-17-18-17-18----------------------
D|------------------15---------------------------------------------------------
A|-----------------------------------------------------------------------------
E|-----------------------------------------------------------------------------


e|-----------------------------------------------------------------------------
B|-------------------------------------------18-16-----------------------------
G|----13-14-151513-15-13-15-----13-15-----15--------18-17-18-17-1818-17-18\13--
D|-15------------------------15------------------------------------------------
A|-----------------------------------------------------------------------------
E|-----------------------------------------------------------------------------


e|-----------------------------------------------------------------------------
B|---18--16\14\13/14-16-------------------18--16\14\13/14-16-18-18--18p16------
G|-15-------------------15-15-1513-15---15--------------------------------18---
D|-----------------------------------------------------------------------------
A|-----------------------------------------------------------------------------
E|-----------------------------------------------------------------------------


e|-----------------------------------------------------------------------------
B|-16--------------------------16\14\13/14-16---------------------18--16\14\13/
G|----18p17-18p17-15h17p15--------------------15-15-1513-15-----15-------------
D|-------------------------18--------------------------------------------------
A|-----------------------------------------------------------------------------
E|-----------------------------------------------------------------------------


e|-----------------------------------------------------------------------------
B|-14-16-18-1818-18-18-18------------------------------------------------------
G|-------------------------------1---------------------------------------------
D|---------------------------3-3-----------------------------------------------
A|-----------------------------------------------------------------------------
E|----------------------This(^)part is played before returning to the beginning
Login or Register to remove this ad.