Ads

Heat Man (Mega Man 2) Guitar Tab

Submitted: Dec 11, 2014 by ltm_1988

5
Average: 5 (1 vote)
Download | Listen
Game: Mega Man 2
Composer(s): Manami Ietel, Manami Matsumae, Ogeretsu Kun
Style: Arrangement, Fingerstyle
Series: Mega Man

AutoScroll: Slow | Medium | Fast
Heat Man
Mega Man 2
Takashi Tateishi
ltm_1988
12/7/2014

    S S S S S S S S S S S S S S S S   S S S S S S S S S S S S S S S S
E||---------------------------------|---------------------------------|
B||---------------------------------|---------------------------------|
G||*--------------------------------|---------------------------------|
D||*----0---------0-----------------|---------------------------------|
A||---------3-4-------0-------------|-----3---1-2---3-----------------|
D||-0-0---0-----0---0---0-6-0-5-4-3-|-0-0---0-----0---0-5-0-4-0-3-2-1-|

    S S S S S S S S S S S S S S S S   S S S S S S S S S S S S S S S S
E||---------------------------------|---------------------------------|
B||---------------------------------|---------------------------------|
G||---------------------------------|---------------------------------|
D||-----0---------0-----------------|---------------------------------|
A||---------3-4-------0-------------|-----3---1-2---3-----------------|
D||-0-0---0-----0---0---0-6-0-5-4-3-|-0-0---0-----0---0-5-0-4-0-3-2-1-|

    S S S S S S S S S S S S S S S S   S S S S S S S S S S S S S S S S
E||---------------------------------|---------------------------------|
B||---------------------------------|---------------------------------|
G||---------------------------------|---------------------------------|
D||-----0---------0-----------------|---------------------------------|
A||---------3-4-------0-------------|-----3---1-2---3-----------------|
D||-0-0---0-----0---0---0-6-0-5-4-3-|-0-0---0-----0---0-5-0-4-0-3-2-1-|

    S S S S S S S S S S S S S S S S   S E   S S E   S S S S Q       S
E||---------------------------------|---------------------------------|
B||---------------------------------|---------------------------------|
G||---------------------------------|---------------------------------|
D||-----0---------0-----------------|---------0-0-----------0---------|
A||---------3-4-------0-------------|-3-3---0-------0-0-3-0-----------|
D||-0-0---0-----0---0---0-6-0-5-4-3-|-------------------------------0-|

    S S S E   S S S S S E   S S S S   S E   E.    S S E   E   S E   S
E||---------------------------------|---------------------------------|
B||---------------------------------|---------------------------------|
G||-2---------------2---2---2-0---0-|---------------0-0---2---0-------|
D||-----0---------0-------------3---|---------------------------2---3-|
A||-------------------0-------------|---------------------------------|
D||-0-0---0---0-0---0---0---0-------|-0-0---0-----0---0---0---0-------|

    S S S S S S S S S S S S E   S S   S S S S S S S S S S S S S S S S
E||---------------------------------|-------0-1-5-------------1-0-----|
B||---------3-----------------------|-3---3---------3-----1-3-----3-1-|
G||-------2-----2---0-2---0---------|-------------------2-------------|
D||---0-3---------0-------------0-2-|---------------------------------|
A||-------------------0-------------|---------------------------------|
D||-0-0---0---0-0---0---0---0-------|-0-0---0-----0---0---0---0-------|

    S S S E   S S S S S E   S S S S   S E   E.    S S E   E   S E   S
E||---------------------------------|---------------------------------|
B||---------------------------------|---------------------------------|
G||-2---------------2---2---2-0---0-|---------------0-0---2---0-------|
D||-----0---------0-------------3---|---------------------------2---3-|
A||-------------------0-------------|---------------------------------|
D||-0-0---0---0-0---0---0---0-------|-0-0---0-----0---0---0---0-------|

    S S S S S S S S S S S S E   S S   S E   S S E   S S S S Q       S x3 W
E||---------------------------------|-0-0-----1-1-------0---1---------||-1-
B||---------3-----------------------|-------3-------3-3---3-----------||-3-
G||-------2-----2---0-2---0---------|--------------------------------*||-2-
D||---0-3---------0-------------0-2-|---------0-0-----------0--------*||-0-
A||-------------------0-------------|-3-3---0-------0-0-3-0-----------||-0-
E||-0-0---0---0-0---0---0---0-------|---------------------------------||-0-
Login or Register to remove this ad.