Ads

Flash Man (Mega Man 2) Guitar Tab

Submitted: Oct 22, 2014 by ltm_1988

0
Download | Listen
Game: Mega Man 2
Composer(s): Manami Ietel, Manami Matsumae, Ogeretsu Kun
Style: Arrangement, Fingerstyle
Series: Mega Man

AutoScroll: Slow | Medium | Fast
Flash Man
Mega Man 2
Takashi Tateishi
ltm_1988
10/20/2014

    Q       E   E   E.    E.    E     E.    E.    E   E   E   S E   S
E||---------------------------------|---------------------------------|
B||-------------0---3-----2---------|-1-----0-------------------------|
G||---------0-------------------2---|-------------0---2---0-----------|
D||-2---------------0---------------|-------------------------2-0---2-|
A||-------------2---------4-----0---|-3-----2---------0---------------|
D||-2-------5-----------------------|-------------5-------5---2-0---2-|

    E   S S S S S S S S S S E   S S   E   S S S S S S S S E   E   E
E||---------------------------------|---------------------------------|
B||---------------------------------|---------------0---0-------------|
G||-----------0-----------0---------|-----------0---0---0-2---0-------|
D||-----4-4-4-2-----4-4-4-2---------|-----4-4-4-2---------4---2---4---|
A||---------------------------------|---------------------2-------5---|
D||-2---2-2-2---2-2-2---2-2-2---2-2-|-2---2-2-4---4-4-5-------0-------|

    Q       E   E   E.    E.    E     E.    E.    E   E   E   S E   S
E||---------------------------------|---------------------------------|
B||-------------0---3-----2---------|-1-----0-------------------------|
G||---------0-------------------2---|-------------0---2---0-----------|
D||-2---------------0---------------|-------------------------2-0---2-|
A||-------------2---------4-----0---|-3-----2---------0---------------|
D||-2-------5-----------------------|-------------5-------5---2-0---2-|

    E   S S S S S S S S S S E   S S   E   S S S S S S S S E   E   E
E||---------------------------------|---------------------------------|
B||---------------------------------|---------------0---0-------------|
G||-----------0-----------0---------|-----------0---0---0-2---0-------|
D||-----4-4-4-2-----4-4-4-2---------|-----4-4-4-2---------4---2---4---|
A||---------------------------------|---------------------2-------5---|
D||-2---2-2-2---2-2-2---2-2-2---2-2-|-2---2-2-4---4-4-5-------0-------|

    Q       E   E   E.    E.    E     E.    E.    E   E   E   S E   S
E||---------------------------------|---------------------------------|
B||-------------0---3-----2---------|-1-----0-------------------------|
G||---------0-------------------2---|-------------0---2---0-----------|
D||-2---------------0---------------|-------------------------2-0---2-|
A||-------------2---------4-----0---|-3-----2---------0---------------|
D||-2-------5-----------------------|-------------5-------5---2-0---2-|

    E   S S S S S S S S S S E   S S   E   S S S S S S S S E   E   E
E||---------------------------------|---------------------------------|
B||---------------------------------|---------------0---0-------------|
G||-----------0-----------0---------|-----------0---0---0-2---0-------|
D||-----4-4-4-2-----4-4-4-2---------|-----4-4-4-2---------4---2---4---|
A||---------------------------------|---------------------2-------5---|
D||-2---2-2-2---2-2-2---2-2-2---2-2-|-2---2-2-4---4-4-5-------0-------|

    Q       E   E   E.    E.    E     E.    E.    E   E   E   S E   S
E||---------------------------------|---------------------------------|
B||-------------0---3-----2---------|-1-----0-------------------------|
G||---------0-------------------2---|-------------0---2---0-----------|
D||-2---------------0---------------|-------------------------2-0---2-|
A||-------------2---------4-----0---|-3-----2---------0---------------|
D||-2-------5-----------------------|-------------5-------5---2-0---2-|

    E   S S S S S S S S S S E   S S   S E   E   E   S E   S S S S S S
E||---------------------------------|---------------------------------|
B||---------------------------------|-----------------0---------------|
G||-----------0-----------0---------|-2-2---2---2---2-0---------------|
D||-----4-4-4-2-----4-4-4-2---------|-4-4---4---4---4-----2-1-0-------|
A||---------------------------------|---------------------------3-2-0-|
D||-2---2-2-2---2-2-2---2-2-2---2-2-|-0-0---0---0---0-2---------------|

    E   E   E   S S S E.    E   E     E   Q       S E   E.    E   E
E||---------------------------------|---------------------------------|
B||---------0-------0---------------|-----0---------------------------|
G||*------------2-----------2---0---|-2---------------------------0---|
D||*----2---------------------------|-------------2~------------------|
A||-------------------------0-------|-------------------------0-------|
D||-2---2-------2-2---5---------4---|-2---2-------2-2---5---------4---|

    E   E   E   S S S S E   E   E     E   Q       S E   S E   E   E
E||---------------------------------|---------------------------------|
B||---------------------------------|---------------------------------|
G||---------------------------------|-------------------------0---2---|
D||-4-------4-------4---2---0---2~--|---------------------2-----------|
A||---------------------------------|-------------------------0-------|
D||-0---0-------0-0---4-----5---2---|-2---2-------2-2---5---------4---|

    E   E   E   S S S E.    E   E     E   Q       S E   E.    E   E
E||---------------------------------|---------------------------------|
B||---------0-------0---------------|-----0---------------------------|
G||-------------2-----------2---0---|-2---------------------------0---|
D||-----2---------------------------|-------------2~------------------|
A||-------------------------0-------|-------------------------0-------|
D||-2---2-------2-2---5---------4---|-2---2-------2-2---5---------4---|

    E   E   E   S S S S E   E   E     E   Q       S E   S E   E   E
E||---------------------------------|---------------------------------|
B||---------------------------------|-----------------------------0---|
G||-----------------0---2-----------|-------------------------0-------|
D||-4-------4---------------4---2~--|---------------------2-----------|
A||---------------------------------|-------------------------0-------|
D||-0---0-------0-0---4-----5---2---|-2---2-------2-2---5---------4---|

    E   S S E   S S E   S S E   S S   E   S S E   S S E   S S E   S S
E||---------------------------------|---------------------------------|
B||-3~------------------------------|-2~--------------1~--------------|
G||-4~------------------------------|-3~--------------2~--------------|
D||---------------------------------|---------------------------------|
A||---------------------------------|---------------------------------|
D||-5---5-5-5---5-5-5---5-5-5---5-5-|-4---4-4-4---4-4-3---3-3-3---3-3-|

    E   E   E   E   E   E   E   E     E   E   E   E   E   E   E   E
E||---------------------------------|---------------------------------|
B||-----------------0---------------|-----0-------0-------------------|
G||-0---0---2---0-------0---0---2---|-3---0---3---0---2---0-----------|
D||-----2~--------------2-----------|---------------------0---2---0---|
A||---------------------------------|-0-------2-------0---------------|
D||-----2---4---2---5---2-------2---|-------------------------4---5---|

    E   S S E   S S E   S S E   S S   E   S S E   S S E   S S E   S S
E||---------------------------------|---------------------------------|
B||-3~------------------------------|-2~--------------1~--------------|
G||-4~------------------------------|-3~--------------2~--------------|
D||---------------------------------|---------------------------------|
A||---------------------------------|---------------------------------|
D||-5---5-5-5---5-5-5---5-5-5---5-5-|-4---4-4-4---4-4-3---3-3-3---3-3-|

    E   E   E   E   E   E   E   E     E   E   E   E   E   E   E   E   x3 W
E||---------------------------------|-0-------------------2---5---7---||-0-
B||-----------------0---------------|-----0---0---0---4---------------||-0-
G||-0---0---2---0-------0---0---2---|-2---0-------0-------0-------0--*||-0-
D||-----2~--------------2-----------|-------------------------4------*||-2-
A||---------------------------------|---------------------------------||-2-
D||-----2---4---2---5---2-------2---|---------------------------------||-2-
Login or Register to remove this ad.