Ads

Flash Man (Mega Man 2) Guitar Tab

Submitted: Mar 26, 2013 by Brody

5
Average: 5 (1 vote)
Download | Listen
Game: Mega Man 2
Composer(s): Manami Ietel, Manami Matsumae, Ogeretsu Kun
Style: Transcription
Series: Mega Man

AutoScroll: Slow | Medium | Fast
Flash Man Stage - Mega Man II
Speed: 150 Bpm


INTRO:

     Q    E  E  E.  E.  E     E.  E.  E  E  E  S E  S  
E||------------------------|--------------------------|
B||------------------------|--------------------------|
G||----------4--7---6------|--5---4-------------------|
D||-------5-------------7--|----------5--7--5---------|
A||--7---------------------|-------------------7-5--7-|
E||------------------------|--------------------------|

  E  S S S E.  S S S E.  E     E  S S S E  E  S E  E  E          
----------------------------|----------------------------||
-----------5---------5------|-----------5--8--8-7--5-----||
-----7-7-7-----7-7-7--------|-----7-7-7---------------7--||
----------------------------|----------------------------||
----------------------------|----------------------------||
----------------------------|----------------------------|| repeat 3x


     Q    E  E  E.  E.  E     E.  E.  E  E  E  S E  S  
E||------------------------|--------------------------|
B||------------------------|--------------------------|
G||----------4--7---6------|--5---4-------------------|
D||-------5-------------7--|----------5--7--5---------|
A||--7---------------------|-------------------7-5--7-|
E||------------------------|--------------------------|

  E  S S S E.  S S S E.  E     S E  E  E  S Q    Q            
----------------------------|-------------------------||
-----------5---------5------|--7-7--7--7--7-8---------||
-----7-7-7-----7-7-7--------|-------------------------||
----------------------------|-------------------------||
----------------------------|-------------------------||
----------------------------|-------------------------||


Main:

     E  E  E  E  Q    E  E     E  Q    H        E     Q    Q    E  E  E  E   
E||--------7--5--7----5-----|--5--7----------------|------------------------|
B||-----5----------------8--|----------5--------8--|--7----7----7--5-----5--|
G||-------------------------|----------------------|------------------7-----|
D||-------------------------|----------------------|------------------------|
A||-------------------------|----------------------|------------------------|
E||-------------------------|----------------------|------------------------|

  H        E  E  E  E    
--------------------5--|
--------------5--8-----|
-----------------------|
-----------------------|
-----------------------|
-----------------------| 


     E  E  E  E  Q    E  E     E  Q    H        E     Q    Q    E  E  E  E   
--------7--5--7----5-----|--5--7----------------|------------------------|
-----5----------------8--|----------5--------8--|--7----7----7--5-----5--|
-------------------------|----------------------|------------------7-----|
-------------------------|----------------------|------------------------|
-------------------------|----------------------|------------------------|
-------------------------|----------------------|------------------------|

     H        E  E  E  E      W                   H        H         
--------------------7--|--10----------------|--9--------8--------|
--------------5--8-----|--------------------|--------------------|
-----------------------|--------------------|--------------------|
-----------------------|--------------------|--------------------|
-----------------------|--------------------|--------------------|
-----------------------|--------------------|--------------------|


  E  E  E  Q    E  E   E      E   E   E   E   E   E  E   E   
--------------------------|---------------------------------|
--8----------------8--10--|--11--12--11--12--10-------------|
-----9--9--9----9---------|----------------------12--9------|
--------------------------|-----------------------------12--|
--------------------------|---------------------------------|
--------------------------|---------------------------------|


   W                   H        H           E  E  E  Q    E  E   E   
--10----------------|--9--------8--------|--------------------------|
--------------------|--------------------|--8----------------8--10--|
--------------------|--------------------|-----9--9--9----9---------|
--------------------|--------------------|--------------------------|
--------------------|--------------------|--------------------------|
--------------------|--------------------|--------------------------|


   E   E   E   E   E   E   E   E    
--12--------------11--14--17--19--||
------12--12--12------------------||
----------------------------------||
----------------------------------||
----------------------------------||
----------------------------------||
Login or Register to remove this ad.