Ads

Ending Theme (Mega Man 2) Guitar Tab

Submitted: May 29, 2015 by soundsandstuff

5
Average: 5 (1 vote)
Download | Listen
Game: Mega Man 2
Composer(s): Manami Ietel, Manami Matsumae, Ogeretsu Kun
Style: Alternate picking, Transcription
Series: Mega Man

Click here for a video example.

AutoScroll: Slow | Medium | Fast
Mega Man 2 - Ending Theme
Platform: NES
Developer/Publisher: Capcom
Composed by: Takashi Tateishi

Electric Guitar Tab Created By: soundsandstuff channel www.youtube.com/user/soundsandstuff
Completed on: 5/16/15


Standard Tuning
================================================================================================================ 

   Part A
E|-----------------------|------------------------|-----------------------|------------------------|
B|-9--L--9-----------9---|-12---10--9-------------|-9--L--9-----------9---|-12---10--9-------------|
G|---------------9-------|---------------11-L-11--|---------------9-------|---------------11-L-11--|
D|-----------11----------|------------------------|-----------11----------|------------------------|
A|-----------------------|------------------------|-----------------------|------------------------|
E|-----------------------|------------------------|-----------------------|------------------------|


E|-----------------------|------------------------|-----------------------|------------------------|
B|-9--L--9-----------9---|-12---10--9-------------|-9--L--9-----------9---|-12---10--9-------------|
G|---------------9-------|---------------11-L-11--|---------------9-------|---------------11-L-11--|
D|-----------11----------|------------------------|-----------11----------|------------------------|
A|-----------------------|------------------------|-----------------------|------------------------|
E|-----------------------|------------------------|-----------------------|------------------------|

   Part B
E|------------------------9----|---------------------------|-12-L--12--10--9-------|
B|-10-L-10--10--10---12--------|-9-L--9---9---10--12-L-12--|-------------------12--|
G|-----------------------------|---------------------------|-----------------------|
D|-----------------------------|---------------------------|-----------------------|
A|-----------------------------|---------------------------|-----------------------|
E|-----------------------------|---------------------------|-----------------------|


E|------------------9--L-9---|----------------------17--16--|-17--19----------------------|
B|-11-L-11--11--12-----------|-10--9---10--12---------------|------------------------10---|
G|---------------------------|------------------------------|-------------------11--------|
D|---------------------------|------------------------------|--------------12-------------|
A|---------------------------|------------------------------|-----------------------------|
E|---------------------------|------------------------------|-----------------------------|

                                                Part C
E|-9-----9----10---9----|-----------9--L-9---|----------------------|----------------------|
B|----------------------|-12----12-----------|-10----9----10---12---|-10--------------14---|
G|----------------------|--------------------|----------------------|-------13---14--------|
D|----------------------|--------------------|----------------------|----------------------|
A|----------------------|--------------------|----------------------|----------------------|
E|----------------------|--------------------|----------------------|----------------------|


E|-14--L-14--9---9---------|------9--------------------|------------------------------|
B|------------------12-10--|-12--------------------9---|-10-L-10----------------------|
G|-------------------------|----------11-L-11--11------|----------11----------11--14--|
D|-------------------------|---------------------------|--------------12--------------|
A|-------------------------|---------------------------|------------------12----------|
E|-------------------------|---------------------------|------------------------------|

                            Part D
E|------------------------|--------|-----------------------|--------|-----------------------|
B|----------15---14--12---|-10---L-|-10--L-10--13--12--10-L|-10--L--|-10-L--10--13--12--10-L|
G|-----13-----------------|--------|-----------------------|--------|-----------------------|
D|-14---------------------|--------|-----------------------|--------|-----------------------|
A|------------------------|--------|-----------------------|--------|-----------------------|
E|------------------------|--------|-----------------------|--------|-----------------------|


E|--------|---------------------------|--------|--------|
B|-10-----|---------------------------|--------|--------|
G|--------|-10-L-10--10--10--12-L-12--|-9---L--|-9------|
D|--------|---------------------------|--------|--------|
A|--------|---------------------------|--------|--------|
E|--------|---------------------------|--------|--------|

=======================================================================================================================

L - Tied Note

Thank you for playing!



Login or Register to remove this ad.