Ads

Dr. Wily Stage 1 (Mega Man 2) Guitar Tab

Submitted: Feb 10, 2014 by cyx77 (Last updated: May 16, 2014)

5
Average: 5 (8 votes)
Download | Listen
Game: Mega Man 2
Composer(s): Manami Ietel, Manami Matsumae, Ogeretsu Kun
Style: Arrangement, Fingerstyle
Series: Mega Man

Click here for a video example.

AutoScroll: Slow | Medium | Fast
				Dr. Wily Stage 1 
	  Composed By: Manami Ietel, Manami Matsumae & Ogeretsu Kun 
			Arranged By: Gianfranco Addante

Standard Tuning (Capo 4)

*Choice of tempo and option to play eighth notes instead of triplets in the first section of the piece
are at your discretion. Original speed is around 180bpm but 140-150bpm is recommended. Most of the tied
notes have been removed from the ASCII; they can be found in the downloadable guitar pro version. 

     E  S S E  S S E  Q    S S    E  S S E  E  E  E  E  E   
E||----------------------------|------------------0-----0--|
B||-----1-1-1--1-1-1-----------|--1--1-1-1-----------3-----|
G||--2----------------2----2-2-|------------2--------------|
D||--2-------------------------|---------------------------|
A||--0-------------------------|--0------------0-----------|
E||----------------------------|---------------------------|


  E  S S E  S S E  Q    E     E  Q    Q    Q.        E  S S E  S S E  E  E  E   
------------------------0--|--L-------------------|-------------------------0--|
-----1-1-1--1-1-1----------|-----3----1----3------|-----3-3-3--3-3-3--0--L-----|
-------------------2-------|----------------------|----------------------------|
---------------------------|----------------------|----------------------------|
---------------------------|----------------------|----------------------------|
--1-------------1----------|--1-------------------|--3-------------------3-----|


  E  E  E  Q    Q    E     E  E  E  E  Q.     E     E  E  E  E  Q    E  E   
------------------------|--------0--3--2---------|--------0--3--2----------|
-----3--L--1----0-------|------------------------|-------------------0--1--|
---------------------2--|-----2---------------2--|-----2-------------------|
---------------------2--|--------------0------2--|--------------0----------|
---------------------0--|---------------------0--|-------------------------|
--------3---------------|------------------------|-------------------------|


  E  S S E  S S E  Q    S S    E  S S E  E  E  E  E  E   
----------------------------|------------------0-----0--|
-----1-1-1--1-1-1-----------|--1--1-1-1-----------3-----|
--2----------------2----2-2-|------------2--------------|
--2-------------------------|---------------------------|
--0-------------------------|--0------------0-----------|
----------------------------|---------------------------|


  E  S S E  S S E  Q    E     E  Q    Q    Q.        E  S S E  S S E  E  E  E   
------------------------0--|----------------------|-------------------------0--|
-----1-1-1--1-1-1----------|-----3----1----3------|-----3-3-3--3-3-3--0--------|
-------------------2-------|----------------------|----------------------------|
---------------------------|----------------------|----------------------------|
---------------------------|----------------------|----------------------------|
--1-------------1----------|--1-------------------|--3-------------------3-----|


  E  E  E  Q    Q    E     E  E  E  E  Q.     E     E  E  E  E  Q    E  E   
------------------------|--------0--3--2---------|--------0--3--2----3--5--|
-----3-----1----0-------|------------------------|----------------------6--|
---------------------2--|-----2---------------2--|-----2-------------------|
---------------------2--|--------------0------2--|--------------0----------|
---------------------0--|---------------------0--|-------------------------|
-----L--3---------------|------------------------|----------------------6--|


  H        Q    E  E     E  E  E  Q    Q.        H        E  Q.      
--L--------5-------8--|-----5----------5------|--3--------3--5------|
--L--------6----8--6--|-----6-----8----6------|--1------------------|
----------------------|-----------------------|--2------------------|
----------------------|-----------------------|---------------------|
----------------------|-----------------------|--0------------------|
--L--------6-------6--|--------6--------------|---------------------|


  E  E  E  E  E  E  E  E     H        Q    E  E     E  E  E  Q    Q    E   
--0--1--0-----------0--3--|--5--------5-------8--|-----5----------5----3--|
--1--------1-----1--------|--6--------6----8--6--|-----6-----8----6----0--|
--------------------------|----------------------|------------------------|
--------------------------|----------------------|------------------------|
--0-----------0-----------|----------------------|------------------------|
--------------------------|--6--------6-------6--|--------6------------3--|


  H        E  E  E  E     E  E  E  E   H           H.           E  E   
--L--------3--0--3--4--|-----4--4--7--12--------|--0---------------3--|
--L-----------------0--|------------------------|--1------------3-----|
-----------------------|------------------------|--2------------------|
-----------------------|------------------------|---------------------|
-----------------------|------------------------|--0------------------|
--L-----------------0--|------------------------|---------------------|


  E  Q    Q    Q    E     H.           E  E     E  Q    Q    Q    E   
-----1----0----1----0--|--L---------------3--|-----1----0----1-------|
--------------------1--|--L------------3-----|--------------------1--|
--------------------2--|--L------------------|--------------------0--|
--------------------3--|--L------------------|--3-----------------0--|
--0--------------------|---------------------|-----------------------|
-----------------------|---------------------|--------------------3--|


  H        E  E  E  E     E  Q    Q    Q    E     E  E  E  E  Q.     E   
-----------------0--0--|-----------------------|--------0--3--2---------|
--L--------1--3--------|-----3----1----0-------|------------------------|
--L-----------------4--|--------------------2--|-----2---------------2--|
--L--------------------|--------------------2--|--------------0------2--|
-----------------------|--------------------0--|---------------------0--|
--L-----------------3--|-----------------------|------------------------|


  E  E  E  E  Q    E  E     H        E  E  E  E     E  Q.     E  E  E  E   
--------0--3--2----------|-----------------------|------------0-----------|
-------------------------|-----------------------|-----1---------3--1--0--|
-----2-------------0--2--|--L--------2-----0--2--|-----2------------------|
--------------0----0--2--|--L--------2-----0--2--|------------------------|
----------------------0--|--L-----------0--------|--0---------------------|
-------------------------|-----------------------|------------------------|


  Q    Q    E  E  E  E     E  Q.     E  E  Q       Q    Q    E  E  E  E   
------------------------|-----------------------|---------------------0--|
------------------------|-----1------1--3--1----|--0---------0--------0--|
--2---------2-----0--2--|-----2------2----------|--0------------2--0--0--|
--3---------3--------3--|-----------------------|--0---------------------|
------------------------|-----------------------|------------------------|
-------1-------1--------|--1--------------------|--3----3-------------3--|


  Q    Q    Q    Q       E  E  E  H        E     E  E  E  E  Q    E  E   
----------------------|-----------------------|--------0--3--2----3--5--|
-------3----1----0----|--0--1--0--------------|----------------------6--|
----------------------|-----------2--------2--|-----2-------------------|
----------------------|--------------------2--|--------------0----------|
----------------------|--0--------0--------0--|-------------------------|
----------------------|-----------------------|----------------------6--|


  H        Q    E  E     E  E  E  Q    Q.        H        E  Q.      
--L--------5-------8--|-----5----------5------|--3--------3--5------|
--L--------6----8--6--|-----6-----8----6------|--1------------------|
----------------------|-----------------------|--2------------------|
----------------------|-----------------------|---------------------|
----------------------|-----------------------|--0------------------|
--L--------6-------6--|-----L--6--------------|---------------------|


  E  E  E  E  E  E  E  E     H        Q    E  E     E  E  E  Q    Q    E   
--0--1--0-----------0--3--|--5--------5-------8--|-----5--L-------5----3--|
--1--------1-----1--------|--6--------6----8--6--|-----6--L--8----6----0--|
--------------------------|----------------------|------------------------|
--------------------------|----------------------|------------------------|
--0-----------0-----------|----------------------|------------------------|
--------------------------|--6--------6-------6--|--------6------------3--|


  H        E  E  E  E     E  E  E  E   Q.     E     E  E  E  E  Q    E  E   
--L--------3--0--3--4--|-----4--4--7--12---------|-------------------5--3--|
--L-----------------0--|----------------------1--|-----1--1--0--1----------|
-----------------------|----------------------2--|-----2--2--2--2----------|
-----------------------|----------------------3--|--------3--3--3----------|
-----------------------|-------------------------|-------------------------|
--L-----------------0--|-------------------------|-------------------------|


  E  Q    E  E  Q    E     Q    E  Q    Q    E  E     E  E  Q    Q    E  E   
-----1----0-------------|-------0--0----0----------|-----0--0----0----------|
-----0----------3----3--|-------1--1----1-------3--|-------------1----3--1--|
-----0----------0----2--|-------2--2----2-------2--|--------2----2-------2--|
------------------------|--------------------------|---------------------3--|
---------------------0--|---------------0-------0--|--------0----0----------|
--3----------3----------|--------------------------|------------------------|


  E  E  E  E  Q    E  E     E  Q    E  E  Q.        E  E  E  H        E   
-------------------5--3--|-----1----0------------|-----------------------|
-----1--1--0--1----------|-----0----------3------|--0--1--0-----------L--|
-----2--2--2--2----------|-----0----------0------|--2--------2--------L--|
--------3--3--3----------|-----------------------|-----------------------|
-------------------------|-----------------------|--0--------------------|
-------------------------|--3----------3---------|-----------------------|


  W                  
-------------------||
--L----------------||
--L----------------||
-------------------||
-------------------||
-------------------||




Duration Legend
---------------
W - whole
H - half
Q - quarter
E - 8th
S - 16th
T - 32nd
X - 64th
. - note dotted
|-n-|  - n-tuplets


Tablature Legend
----------------
L - tied note
x - dead note
g - grace note
(n) - ghost note
> - accentuded note
NH - natural harmonic
AH - artificial harmonic
TH - tapped harmonic
SH - semi harmonic
PH - pitch harmonic
h - hammer on
p - pull off
b - bend
br - bendRelease
pb - preBend
pbr - preBendRelease
brb - bendReleaseBend
\n/ - tremolo bar dip
\n - tremolo bar dive
-/n - tremolo bar Release up
/n\ - tremolo bar inverted dip
/n - tremolo bar return
-\n - tremolo bar Release down
S - shift slide
s - legato slide
/ -  slide into from below or out of upwards
\ -  slide into from above or out of downwards
~ - vibrato
W - wide vibrato
tr - trill
TP - tremolo picking
T - tapping
S - slap
P - pop
< - fade in
^ - brush up
v - brush down
Login or Register to remove this ad.

3 comments on Dr. Wily Stage 1

Absolutely fantastic mate.

5

Absolutely fantastic mate. Very dramatic.

Great tab

5

Very accessible, and a great way to practice right hand picking on one string

I really enjoy this one

5

This is a great tab.

I like it so much that I've been playing it for probably a half year now and I actually recently recorded my self playing it..

Https://soundcloud.com/dao-jarlen/dr-wily

Thank you and sorry for kinda of butchering it and messing up the order of the sections.