Crash Man (Mega Man 2) Guitar Tab

Submitted: Dec 16, 2014 by ltm_1988

5
Average: 5 (1 vote)
Download | Listen
Game: Mega Man 2
Composer(s): Manami Ietel, Manami Matsumae, Ogeretsu Kun
Style: Arrangement, Fingerstyle
Series: Mega Man

AutoScroll: Slow | Medium | Fast
Crash Man
Mega Man 2
Takashi Tateishi
ltm_1988
12/11/2014

    Q.          E   Q       E.    S   S S E   E   E   Q       E   E
E||---------------------------------|---------------------------------|
B||---------------------------------|---------------------------------|
G||---------------------------------|---------------------------------|
D||---------------------------------|---------------------------------|
A||---------------------------------|---------------------------------|
E||-3-----------0---1-------2-----3-|---3-3---3---0---1-------2---3---|

    Q.          E   Q       E.    S   S S E   E   E   E   E   E   E
E||---------------------------------|---------------------3---3-------|
B||---------------------------------|---------------------3---3-------|
G||---------------------------------|---------------------------------|
D||---------------------------------|---------------------3-------4---|
A||---------------------------------|---------------------------------|
E||-3-----------0---1-------2-----3-|---3-3---3---0---1-------2-------|

    Q.          E   Q       E.    S   S S E   E   E   S E   S S S S S
E||---------------------------------|-----------------3-3---3-5-6-5-3-|
B||---------------------------------|-----------------3-3-------------|
G||---------------------------------|---------------------------------|
D||---------------------------------|---------------------------------|
A||---------------------------------|---------------------------------|
E||-3-----------0---1-------2-----3-|---3-3---3---0-------------------|

    Q.          E   Q       Q         E   E   E   E   E.    S S S S S
E||---------------------------------|-3---3---3---3---3-----3-5-6-5-3-|
B||---------------------------------|-3---3---3---3---3---------------|
G||---------------------------------|---------------------------------|
D||---------------------------------|---------------------------------|
A||---------------------------------|---------------------------------|
E||-3-----------0---1-------2-------|-3---3---3---3---3---------------|

    Q.          E   Q       E.    S   S S E   E   E   E   E   E   E
E||-----------------1-------0-------|-----------------1-------0-------|
B||-3-----------3---3-------1-----3-|---3-3---3---3---3-------1---4---|
G||*4-----------4-----------------4-|---4-4---4---4---------------5---|
D||*--------------------------------|---------------------3-------4---|
A||---------------------------------|---------------------------------|
E||-3-----------0---1-------2-----3-|---3-3---3---0---1-------2-------|

    Q.          E   Q       E.    S   S S E   E   E   E   E   E   E
E||-----------------1-------0-------|---------------------3---3-------|
B||-3-----------3---3-------1-----3-|---3-3---3---3-------3---3-------|
G||-4-----------4-----------------4-|---4-4---4---4-------------------|
D||---------------------------------|---------------------3-------4---|
A||---------------------------------|---------------------------------|
E||-3-----------0---1-------2-----3-|---3-3---3---0---1-------2-------|

    Q.          E   Q       E.    S   S S E   E   E   E   E   E   E
E||-----------------1-------0-------|-----------------1-------0-------|
B||-3-----------3---3-------1-----3-|---3-3---3---3---3-------1---4---|
G||-4-----------4-----------------4-|---4-4---4---4---------------5---|
D||---------------------------------|---------------------3-------4---|
A||---------------------------------|---------------------------------|
E||-3-----------0---1-------2-----3-|---3-3---3---0---1-------2-------|

    Q.          E   Q       E.    S   S S E   E   E   E   E   E   E
E||-----------------1-------0-------|---------------------3---3-------|
B||-3-----------3---3-------1-----3-|---3-3---3---3-------3---3-------|
G||-4-----------4-----------------4-|---4-4---4---4-------------------|
D||---------------------------------|---------------------3-------4---|
A||---------------------------------|---------------------------------|
E||-3-----------0---1-------2-----3-|---3-3---3---0---1-------2-------|

    Q       E   S S E   E   S S S S   S S E   E   E   E   E   E   E
E||---------------------------------|---------------------------------|
B||-0-------0-----0-0---0---0-------|---------------------------------|
G||---------------------------2-0-2-|-----0---------------0---2---0---|
D||---------------------------------|---------------------3-------4---|
A||---------------------------------|---------------------------------|
E||-3-----------0---1-------2-----3-|---3-3---3---0---1-------2-------|

    Q       E   S S E   E   E   S S   S S E   E   E   E   E   E   E
E||---------------------------------|---------------------3---3-------|
B||-0-------0-----0-1---0-------3~--|---------------------------------|
G||---------------------------------|---------------------------------|
D||---------------------------------|---------------------3-------4---|
A||---------------------------------|---------------------------------|
E||-3-----------0---1-------2-----3-|---3-3---3---0---1-------2-------|

    Q       E   S S E   E   S S S S   S S E   E   E   E   E   E   E
E||---------------------------------|---------------------------------|
B||-3-------3-----3-3---3---3-1-0-1-|-----0---------------0---1---0---|
G||---------------------------------|---------------------------------|
D||---------------------------------|---------------------3-------4---|
A||---------------------------------|---------------------------------|
E||-3-----------0---1-------2-----3-|---3-3---3---0---1-------2-------|

    Q       E   S S E   E   E   S S   S S E   E   E   E   E   E   E
E||-----------------0-----------1~--|---------------------3---3-------|
B||-3-------3-----3-----3-----------|---------------------------------|
G||---------------------------------|---------------------------------|
D||---------------------------------|---------------------3-------4---|
A||---------------------------------|---------------------------------|
E||-3-----------0---1-------2-----3-|---3-3---3---0---1-------2-------|

    Q       E   S S E   E   S S S S   S S E   E   E   E   E   E   E
E||-3-------3-----3-3---3---3-0---0-|-------------------------0-------|
B||-----------------------------3---|-----3---------------3-------3---|
G||-0-----------------------------0-|---0-0---0-----------------------|
D||-------------2---3-------4-------|-------------2---3---3---4---4---|
A||---------------------------------|---------------------------------|
E||---------------------------------|---------------------------------|

    Q       E   S S E   E   E   S S   S S E   E   E   E   E   E   E
E||-3-------3-----3-5---3-------6~--|---------------------3---3-------|
B||---------------------------------|---------------------------------|
G||-0-----------------------------0-|---0-0---0-----------------------|
D||-------------2---3-------4-------|-----------------3---3---4---4---|
A||---------------------------------|-------------7-------------------|
E||---------------------------------|---------------------------------|

    Q       E   S S E   E   S S S S   S S E   E   E   E   E   E   E
E||-7-------7-----7-7---7---7-5-3-5-|-----3---------------3---5---3---|
B||---------------------------------|---------------------------------|
G||-0-----------------------------0-|---0-0---0-----------------------|
D||---------------------------------|-------------2---3---3---4---4---|
A||-------------7---8-------9-------|---------------------------------|
E||---------------------------------|---------------------------------|

    Q       E   S S E   E   E   S S   S S E   E   E   E   E   E   E
E||-7-------7-----7-8---7-------10~-|-----------------3\-\10--5\-\15--|
B||---------------------------------|---------------------------------|
G||-0-------------------------------|---------------------------------|
D||---------------------------------|---------------------------------|
A||-------------7---8-------9-----10|--10-10--10--7-------------------|
E||---------------------------------|---------------------------------|

    Q.          E   Q       E.    S   S S E   E   E   E   E   E   E
E||-----------------1-------0-------|-----------------1-------0-------|
B||-3-----------3---3-------1-----3-|---3-3---3---3---3-------1---4---|
G||-4-----------4-----------------4-|---4-4---4---4---------------5---|
D||---------------------------------|---------------------3-------4---|
A||---------------------------------|---------------------------------|
E||-3-----------0---1-------2-----3-|---3-3---3---0---1-------2-------|

    Q.          E   Q       E.    S   S S E   E   E   E   E   E   E
E||-----------------1-------0-------|---------------------3---3-------|
B||-3-----------3---3-------1-----3-|---3-3---3---3-------3---3-------|
G||-4-----------4-----------------4-|---4-4---4---4-------------------|
D||---------------------------------|---------------------3-------4---|
A||---------------------------------|---------------------------------|
E||-3-----------0---1-------2-----3-|---3-3---3---0---1-------2-------|

    Q.          E   Q       E.    S   S S E   E   E   E   E   E   E
E||-----------------1-------0-------|-----------------1-------0-------|
B||-3-----------3---3-------1-----3-|---3-3---3---3---3-------1---4---|
G||-4-----------4-----------------4-|---4-4---4---4---------------5---|
D||---------------------------------|---------------------3-------4---|
A||---------------------------------|---------------------------------|
E||-3-----------0---1-------2-----3-|---3-3---3---0---1-------2-------|

    Q.          E   Q       E.    S   S S E   E   E   E   E   E   E
E||-----------------1-------0-------|---------------------3---3-------|
B||-3-----------3---3-------1-----3-|---3-3---3---3-------3---3-------|
G||-4-----------4-----------------4-|---4-4---4---4-------------------|
D||---------------------------------|---------------------3-------4---|
A||---------------------------------|---------------------------------|
E||-3-----------0---1-------2-----3-|---3-3---3---0---1-------2-------|

    E.    S E   S S S S S S S S E     E.    E.    E   E   E   S E   S
E||-0-------0-----0-0-----------0---|---------------------------------|
B||-1-------1-----1-1---1-------1---|-3---------------1---1---1-3---3-|
G||---------------------2-----------|-4---------------2---2---2-4---4-|
D||-------------------2-------------|-------------0-------------------|
A||-------0-----3-------3-0-3-2-0---|-------2-------------------------|
E||-1-------------------------------|-3---------------1---1---1-3-----|*

    E.    S E   S S S S S S S S E     E.    E.    E   E   E   S E   S
E||-0-------0-----0-0-----------0---|---------------------------------|
B||-1-------1-----1-1---1-------1---|-3---------------1---1---1-3---3-|
G||---------------------2-----------|-4---------------2---2---2-4---4-|
D||-------------------2-------------|-------------0-------------------|
A||-------0-----3-------3-0-3-2-0---|-------2-------------------------|
E||-1-------------------------------|-3---------------1---1---1-3-----|

    E.    S E   S S S S S S S S E     E.    E.    E   E   E   S E   S
E||-0-------0-----0-0-----------0---|---------------------------------|
B||-1-------1-----1-1---1-------1---|-3---------------1---1---1-3---3-|
G||---------------------2-----------|-4---------------2---2---2-4---4-|
D||-------------------2-------------|-------------0-------------------|
A||-------0-----3-------3-0-3-2-0---|-------2-------------------------|
E||-1-------------------------------|-3---------------1---1---1-3-----|

    E.    S E   S S S S S S S S E     S E   S E   S H               S x3 W
E||-0-------0-----0-0---0-------0---|-------------7-7-----------------||-3-
B||-1-------------------8-----------|-0-0---8-8---8-8-----------------||-3-
G||---------5-----5-5-----------5---|-7-7---7-7----------------------*||-0-
D||---------------------------------|-5-5---------0-0----------------*||-0-
A||-------0-----------7---0-----0---|---------------------------------||-2-
E||-1-----------8-------8---8-7-----|-------7-7-----------------------||-3-

*Alternate end

    E.    S E   S S S S Q       E     E.    E.    E   E   E   S E   S
E||-0-------0-----0-0-----------0---|---------------------------------|
B||-1-------1-----1-1---1-------1---|-3---------------1---1---1-3---3-|
G||---------------------2-----------|-4---------------2---2---2-4---4-|
D||-------------------2-------------|-------------0-------------------|
A||-------0-----3-------3-------0---|-------2-------------------------|
E||-1-------------------------------|-3---------------1---1---1-3-----|

    E.    S E   S S S S Q       E     E.    E.    E   E   E   S E   S
E||-0-------0-----0-0-----------0---|---------------------------------|
B||-1-------1-----1-1---1-------1---|-3---------------1---1---1-3---3-|
G||---------------------2-----------|-4---------------2---2---2-4---4-|
D||-------------------2-------------|-------------0-------------------|
A||-------0-----3-------3-------0---|-------2-------------------------|
E||-1-------------------------------|-3---------------1---1---1-3-----|

    E.    S E   S S S S Q       E     E.    E.    E   E   E   S E   S
E||-0-------0-----0-0-----------0---|---------------------------------|
B||-1-------1-----1-1---1-------1---|-3---------------1---1---1-3---3-|
G||---------------------2-----------|-4---------------2---2---2-4---4-|
D||-------------------2-------------|-------------0-------------------|
A||-------0-----3-------3-------0---|-------2-------------------------|
E||-1-------------------------------|-3---------------1---1---1-3-----|

    E.    S E   S S S S Q       E     S E   S E   S H               S x3 W
E||-0-------0-----0-0---0-------0---|-------------7-7-----------------||-3-
B||-1-------------------8-----------|-0-0---8-8---8-8-----------------||-3-
G||---------5-----5-5-----------5---|-7-7---7-7----------------------*||-0-
D||---------------------------------|-5-5---------0-0----------------*||-0-
A||-------0-----------7---------0---|---------------------------------||-2-
E||-1-----------8-------8-----------|-------7-7-----------------------||-3-
Login or Register to remove this ad.