Ads

Air Man (Mega Man 2) Guitar Tab

Submitted: Oct 15, 2014 by ltm_1988

4.75
Average: 4.8 (4 votes)
Download | Listen
Game: Mega Man 2
Composer(s): Manami Ietel, Manami Matsumae, Ogeretsu Kun
Style: Arrangement, Fingerstyle
Series: Mega Man

AutoScroll: Slow | Medium | Fast
Air Man
Mega Man 2
Takashi Tateishi, Manami Matsumae
ltm_1988
10/12/2014

    Q       E   E   E   Q       E     E   Q       E   E   Q.
E||---------------------------------|---------------------------------|
B||---------------------------------|---------------------------------|
G||*--------1---0-------------------|-----1-------0-------------------|
D||*3~------3---2-------4-------3~--|-----3-------2-------4~----------|
A||-4~------------------6-------4~--|-----1---------------6~----------|
E||-6-----------1---4---6-------6---|-------------1---4---4-----------|

    Q.          E   E   E   E   E     E   E   E   Q       E   E   E
E||---------------------------------|---------------------------------|
B||---------------------------------|---------------------------------|
G||---------------------------------|---------------------------------|
D||-3~----------3---3---1-------3---|-----3---1---3~------------------|
A||-4~--------------4---3---4---3~--|-----4---3-----------1---3---1---|
E||---------------------1---6---4~--|-----6-------4~------1---4---1---|

    Q       E   E   E   Q       E     E   Q       E   E   Q.
E||---------------------------------|---------------------------------|
B||---------------------------------|---------------------------------|
G||---------1---0-------------------|-----1-------0-------------------|
D||---------3---2-------4-------3~--|-----3-------2-------4~----------|
A||---------------------6-------4~--|-----1---------------6~----------|
E||-------------1---4---6-------6---|-------------1---4---4-----------|

    Q.          E   E   E   E   E     E   E   E   Q       E   E   E
E||---------------------------------|---------------------------------|
B||---------------------------------|---------------------------------|
G||---------------------------------|---------------------------------|
D||-3~----------3---3---1-------3---|-----3---1---3~------------------|
A||-4~--------------4---3---4---3~--|-----4---3-----------1---3---1---|
E||---------------------1---6---4~--|-----6-------4~------1---4---1---|

    E   E   E   E   E   E   E   E     E   E   E   E   E   Q       E
E||---------------------------------|---------------------------------|
B||---------------------------------|-1---1---1---1---1---1-----------|
G||---------------------------------|-1---1---1---1---1---2-------3~--|
D||-------------------------1-------|---------------------------------|
A||-----1---3---1---4---1-------1---|-----------------------------1---|
E||-----1-------1---1---1-------1---|-2---2---2---2---2---4-----------|

    Q.          E   E   Q       E     E   Q       E   E   E   E   E
E||---------------------------------|---------------------------------|
B||---------------------------------|---------------------------------|
G||-----------------1---3-------3---|-----3~----------1---1---2---2---|
D||-------------3-------------------|-------------3-------------------|
A||---------------------1-------1---|-----1-----------------------0---|
E||-------------1---4---------------|-------------1---4---4-----------|

    Q.          E   E   Q       E     E   Q       E   E   Q       E
E||---------------------------------|-1~------------------------------|
B||---------------------------------|---------------------------------|
G||-3~----------1---1---3-------3---|-----3-----------3---2-------1~--|
D||---------------------------------|-------------3-------------------|
A||-1-------------------1-------1---|-----1-----------1---1-------0---|
E||-------------1---4---------------|-------------1-------------------|

    Q.          E   E   Q       E     E   E   E   E   E   E   E   E
E||---------------------------------|---------------------------------|
B||---------------------------------|---------------------1-----------|
G||-1~------------------1-------1---|-----1-------1-----------3---1---|
D||-------------1---3---------------|---------4---1-------------------|
A||---------------------------------|---------------------------------|
E||-4---------------1---4-------4---|-----4-----------4---2-------2---|

    Q.          E   E   Q       E     E   E   E   E   E   E   E   E
E||---------------------------------|---------------------------------|
B||---------------------------------|-----------------1---1-------2~--|
G||-1~------------------------------|---------1~------1---2-------3~--|
D||-------------1-------3~----------|-------------1-----------1-------|
A||---------------------------------|---------------------------------|
E||-4---------------1---4-------4---|-----4---------------------------|

    E   E   E   E   E   E   E   E     S S S E.    E   E   E   E   E
E||---------------------------------|---1---4---------6-------4-------|
B||-----------------1-------2---4---|-4-------------------------------|
G||-----1-------3-------3-----------|---------------------------------|
D||---------3-----------------------|---------------------------------|
A||-1-------------------1-------1---|-----1-----------------------0---|
E||-------------1---4---------------|-------------1---4---4-----------|

    Q.          E   E   E   E   E     E   Q       E   E   E   E   E
E||-1~------------------------------|---------------------------------|
B||-------------4~----------2~------|-----1~--------------------------|
G||---------------------------------|-----------------3-------1~------|
D||---------------------------------|---------------------------------|
A||-1-------------------1-------1---|-----1-----------1---1-------0---|
E||-------------1---4---------------|-------------1-------------------|

    S Q       S S S E   E   S S E     E   Q       E   E   E   E   E
E||-------------3-4~-------10-11~---|-------------8-------7---6---4---|
B||-3-4~----------------------------|---------------------------------|
G||---------------------------------|---------------------------------|
D||-------------1-------------------|-----------------6---4-------4---|
A||---------------------------------|-------------6-------------------|
E||-4---------------1---4-------11--|-----11--------------------------|

    Q       E   E   E   E   E   E     Q.          E   E   E   E   E
E||-2-------6-------9-------13------|18/----------13------------------|
B||---------------------------------|-----------------2---1-----------|
G||---------------------------------|-----------------------------3---|
D||---------------------------------|-------------------------1---4---|
A||-------------6---8---11------11--|---------------------------------|
E||-4-------------------------------|-------------11------------------|

    E   E   E   E   Q.          E     Q       E   E   E   Q       E
E||---------------------------------|-----------------------------1---|
B||---------------------------------|---------------------2-------2---|
G||-----3---3---1---3~--------------|-3-------3---1---3---1-----------|
D||-----4---4---3---4~--------------|-4-------4---3---4---------------|
A||-------------4---------------4---|-------------4-------1-----------|
E||-----2-----------2---------------|-2---------------2-----------4---|

    E   E   E   E   E   Q       E     E   E   E   E   E   E   E   E
E||---------------------------------|-4-------2-------1---------------|
B||-----4~--------------------------|-------------------------4-------|
G||---------5---5---5---6~----------|-----------------------------3---|
D||---------------------6-----------|-----------------------------4---|
A||-------------6-------------------|---------------------------------|
E||-----4-----------4-----------4---|-4---4-------4-------4-------2---|

    E   E   E   E   Q.          E     Q       E   E   E   Q       E
E||---------------------------------|-----------------------------1---|
B||---------------------------------|---------------------2-------2---|
G||-----3---3---1---3~--------------|-3-------3---1---3---1-----------|
D||-----4---4---3---4~--------------|-4-------4---3---4---------------|
A||-------------4---------------4---|-------------4-------1-----------|
E||-----2-----------2---------------|-2---------------2-----------4---|

    E   E   E   E   E   Q       E     E   Q       E   E   Q       E   x3 W
E||-----------------------------1~--|---------------------------------||-1-
B||-----4~----------4---1-----------|---------------------------------||-2-
G||-----5---5---5-------1-----------|--------------------------------*||-3-
D||---------------------------------|-----------------3-----------1--*||-3-
A||-------------6-------------------|-----------------3---4~------3---||-1-
E||-----4-----------4-----------4---|-4---4-------4-------6~------2---||---
Login or Register to remove this ad.