Ads

Main Theme (Medal of Honor: Frontline) Guitar Tab

Submitted: Jan 29, 2014 by SolidusArmor

0
Download | Listen
Game: Medal of Honor: Frontline
Composer(s): Michael Giacchino
Style: Transcription

This song is also called Operation Market Garden

AutoScroll: Slow | Medium | Fast
-------------------------------------------------------------------------------
			   Medal Of Honor Frontline Main Theme
-------------------------------------------------------------------------------
Tabbed by:SolidusArmor
E-mail:

Tuning:Standard

Tabbed completely by ear

e|---------------------------------------------------------------------------|
B|--3let ring------8--7------------3let ring -------------8--7---------------|
G|-------------2/9-------------------------------2/9-------------------------|
D|---------------------------------------------------------------------9-----|
A|---------------------------------------------------------------------------|
E|---------------------------------------------------------------------------|

e|---------------------------------------------------------------------------|
B|---3let ring-------------8---7-----10--------3let ring-----------8-7-------|
G|---------------2/9-------------------------------------2/9-----------------|
D|---------------------------------------------------------------------------|
A|---------------------------------------------------------------------------|
E|---------------------------------------------------------------------------|

e|--17-------------19----17--------------17-------------------------19-------|
B|-------14--15---------------14---15--------14---15--------15--13-----------|
G|---------------------------------------------------------------------------|
D|---------------------------------------------------------------------------|
A|---------------------------------------------------------------------------|
E|---------------------------------------------------------------------------|


| /   slide up
| \   slide down
| h   hammer-on
| p   pull-off
| ~   vibrato
| +   harmonic
| x   Mute note
| b   Bend
| pb  Pre-bend
| br  Bend release
| pbr Pre-bend release
| brb Bend release bend

************************************
Login or Register to remove this ad.