Battle 1 (Medabots AX: Metabee Version) Guitar Tab

Submitted: Nov 09, 2012 by Mareeck

0
Download | Listen
Game: Medabots AX: Metabee Version
Composer(s): Kinuyo Yamashita
Style: Transcription

AutoScroll: Slow | Medium | Fast
Tabbed by:Mareeck
Email:[email protected]
Tuning:Standard
Medabots: Metabee version - Battle 1


E|---------------------------------------------------------------|
B|----------------------------------------------0-1-3------------|
G|--2-2--245--2-2-245--4-5-7-5-7-5-4--------1-2------------------|
D|--------------------------------------2-3----------------------|
A|---------------------------------------------------------------|
E|---------------------------------------------------------------|

E|------------------------------------------s12------------------|
B|---------------------------------------------------------------|
G|--2-2-245--2-2-245--4-5-7-9-10--12-10-9------------------------|
D|---------------------------------------------------------------|
A|---------------------------------------------------------------|
E|---------------------------------------------------------------|

E|-13-13-13-15-13-15-13-15-17------------------------------------|
B|----------------------------17---------------------------------|
G|-------------------------------17-16-14-12---------------------|
D|---------------------------------------------------------------|
A|---------------------------------------------------------------|
E|---------------------------------------------------------------|

E|---------------------------------------------------------------|
B|----------13-12-10-8-10-12-13-15-17-20-------------------------|
G|-14-14-14------------------------------------------------------|
D|---------------------------------------------------------------|
A|---------------------------------------------------------------|
E|---------------------------------------------------------------|

E|-13-13-13-15-13-15-13-15-17------------------------------------------------|
B|----------------------------17---------------------------------------------|
G|-------------------------------17-16-14-12--14-14-14-14-14-14-14-14--14-14-|
D|---------------------------------------------------------------------------|
A|---------------------------------------------------------------------------|
E|---------------------------------------------------------------------------|

E|----------------------------16-------16------------------------|
B|----------12-------15-12-------15-12----15-12------------------|
G|-13----------13----------13------------------------------------|
D|----15-12-------15---------------------------------------------|
A|---------------------------------------------------------------|
E|---------------------------------------------------------------|
Login or Register to remove this ad.