Ads

Main Theme (Max Payne) Guitar Tab

Submitted: Aug 29, 2014 by Matatiahu (Last updated: Aug 29, 2014)

5
Average: 5 (2 votes)
Download | No audio :(
Game: Max Payne
Composer(s): Kärtsy Hatakka, Kimmo Kajasto
Style: Arrangement, Fingerstyle

Click here for a video example.

AutoScroll: Slow | Medium | Fast
                      Max Payne
                     Main Theme
            Kärtsy Hatakka & Kimmo Kajasto




Tune: Standard

Capo on the third fret


E||---------------------------------------------------
B||---------------------------------------------------
G||---------------------------------------------------
D||---------------------------------------------------
A||--0-----------0-----------0-----------0------------
E||----x---x-------------------x---x------------------

--------------------------5-----------3------------
----------------0-1---3---------5-----------5------
--------------2-------------------------------5----
---------------------------------------------------
--0-----------0-----------0-----------0------------
--0------------------------------------------------

                                            ~
---------------------------------------------------
--------------------------0-----------0-----1------
--1-----------------------------------------1------
------------------3---2---------2------------------
---------------------------------------------------
--0-----------0-----------0-----------0------------

--------------------------5-----------3------------
----------------0-1---3---------5-----------5------
--2-----------2---------------2-----2-----2---5----
------2---2-----------------2-----2-----2----------
--0-----------0-----------0-----------0------------
----0---0---0--------------------------------------

---------------------------------------------------
--------------------------0-----------0-----1------
--1------------------------------------------------
------2---2-------3---2-------2---2-------2-----2--
----2---2---2---2---2---2---2---2---2---2-----2----
--0-----------0-----------0-------0---0------------

--------------------------5-----------3------------
----------------0-1---3---------5-----------5------
--1-----2-----2---------------2-----2-----2---5----
------2-----2---------------2-----2-----2----------
--0-------0---------------0-----------0------------
----0----------------------------------------------

---------------------------------------------------
--0-----------------------0-----------0-----1------
--1-------------------------------1----------------
------2---2-------2---3-2-----2--------------------
----2---2---2---2---2-------2---2---2--------------
--0-----------0-----------0-----------0------------

--0-----------------------------1-0-------1---0----
----------------0-1---3----------------------------
--------------2---------------2--------------------
------2---2-----------------2-----------2----------
--0-----------0-----------0-----------0------------
----0---0---0--------------------------------------

--4-----------0---------------------------4/5-4----
---------------------------------------------------
--------------1------------------------------------
------0---0-------0---0-------0---0----------------
----2---2---2---2---2---2---2---2---2---2----------
--0-----------0-----------0-----------0------------

--5-----------------------5-----------3------------
----------------------3---------5-----------5------
--2-----------2-4-5-----------2-----2-----2---5----
--2---2---2-----------------2-----2-----2----------
--0-----------0-----------0-----------0------------
----0---0---0--------------------------------------

---------------------------------------------------
--0-----------------------0-----------0-----1------
--1-------------------------------1----------------
------2---2-------3---2-------2--------------------
----2---2---2---2---2---2---2---2---2--------------
--0-----------0-----------0-----------0------------

---------------------------------------------------
----------------------1---0-----------1-----0------
--2-----------------2-------------1----------------
------3---3-------3-----------2-----------2-----2--
----3---3---3---3-----------2---2---2---2-----2----
--1-----------1-----------0------------------------

---------------------------------------------------
----------------------1---0------------------------
--2-----------------2-----------2-----1-----2------
------3---3-------3-----------2-----2-----2--------
----3---3---3---3-----------2-----2-----2----------
--1-----------1-----------0------------------------

--------------------------5---5---0---3---3---0----
----------------0-1---3---1---1---1---1---1---1----
--2-----------2------------------------------------
--2------------------------------------------------
--0-----------0-----------0------------------------
---------------------------------------------------

---------------------------------------------------
--0-----------------------0-----------0-------1----
--1-----------------------1-------1---1------------
------2---2-------3---2-------2---2-------2--------
----2---2---2---2-----------2---2---2---2---2------
--0-----------0---1---0---0-----------0------------

--------------------------5---5---0---3---3---0----
----------------0-1---3---0---0---0---0---0---0----
--1---1---2---2------------------------------------
--2---2---2---2-------------------------2---2------
--0-----------------------0-----------0------------
----0---0---0--------------------------------------

----------------------------------------------0----
--0-----------------------0-----------0---1--------
--1---------------2---1---1-------1---1------------
------2---2-------3---2-------2--------------------
----2---2---2---2-----------2---2---2--------------
--0-----------0-----------0------------------------

--1-----------1-3-5---8---7-----0-----8-----7------
---------------------------------------------------
---------------------------------------------------
------3---3-------------------6-----6-----6-----6--
----3---3---3---------------7-----7-----7-----7----
--1-----------1-----------0-----------0------------

--1-----------1-3-5---7---5-----4-----------7------
--------------------------------------7------------
---------------------------------------------------
------3---3-------------------6-----6-----6-----6--
----3---3---3---------------7-----7-----7-----7----
--1-----------1-----------0------------------------

--------------|
--------------|
--------------|
--------------|
--------------|
--------------|

--5-----------------------5------------------------
--5-------------------0---------5-----8-----5------
--5-------------5-7-----------5-----5-----5---5----
--------------7-------------7-----7-----7----------
---------------------------------------------------
--5-----------5------------------------------------

---------------------------------------------------
--------------------------0-----------0-----1------
--1------------------------------------------------
------2---2-------3---2---------2------------------
----2---2---2--------------------------------------
--0-----------0-----------0-----------0------------

--------------------------5-----0-----3-----0------
----------------0-1---3---5------------------------
--1-----2-----2-------------------------------5----
--2------------------------------------------------
--0-----------------------0------------------------
--------------0------------------------------------

---------------------------------------------------
--------------------------0-----------0-----1------
--1------------------------------------------------
--2-----------------------------2------------------
---------------------------------------------------
--0---------------1---0----------------------------

--1-1---1---1-1-1---1---1-0-0---0---0-2-2---2---2--
--1-1---1---1-1-1---1---1-0-0---0---0-0-0---0---0--
--2-2---2---2-2-2---2---2-1-1---1---1-2-2---2---2--
--3-3---3---3-3-3---3---3-2-2---2---2--------------
--3-3---3---3-3-3---3---3-2-2---2---2-2-2---2---2--
--1-1---1---1-1-1---1---1-0-0---0---0--------------

--1-1---1---1-1-1---1---1-0-0---0---0-0-0---0---0--
--1-1---1---1-1-1---1---1-0-0---0---0-0-0---0---0--
--2-2---2---2-2-2---2---2-1-1---1---1-1-1---1---1--
--3-3---3---3-3-3---3---3-2-2---2---2-2-2---2---2--
--3-3---3---3-3-3---3-----2-2---2---2-2-2---2---2--
--1-1---1---1-1-1---1---3-0-0---0---0-0-0---0---0--

--0-0---0---0-0p1---1---1-0-0---0---0-2-2---2---2--
--0-0---0---0-0p1---1---1-0-0---0---0-0-0---0---0--
--0-0---0---0-0p2---2---2-1-1---1---1-2-2---2---2--
--3-3---3---3-3-3---3---3-2-2---2---2--------------
--3-3---3---3-3-3---3---3-2-2---2---2-2-2---2---2--
--1-1---1---1-1-1---1---1-0-0---0---0--------------

--1-1---1---1-1-1---1---3-0-0---0---0-0-0---0---0--
--1-1---1---1-1-1---1---3-0-0---0---0-0-0---0---0--
--2-2---2---2-2-2---2---4-1-1---1---1-1-1---1---1--
--3-3---3---3-3-3---3---5-2-2---2---2-2-2---2---2--
--3-3---3---3-3-3---3---5-2-2---2---2-2-2---2---2--
--1-1---1---1-1-1---1---3-0-0---0---0-0-0---0---0--

--0------------------------------------------------|
--0------------------------------------------------|
--2------------------------------------------------|
--2------------------------------------------------|
--0------------------------------------------------|
--0------------------------------------------------|
Login or Register to remove this ad.