Ads

Uncharted Worlds (Mass Effect) Guitar Tab

Submitted: Nov 17, 2010 by Ghosts (Last updated: Nov 21, 2010)

0
Download | Listen
Game: Mass Effect
Composer(s): Jack Wall, Sam Hulick
Style: 2 or more instruments, Transcription

AutoScroll: Slow | Medium | Fast
Song: Uncharted Worlds (Galaxy Map Music)\
Game(s): Mass Effect (2)\
Composer: Jack Wall\
Tabbed: 17/11/2010\
\
First Track\
e---------------------------------------\
B---------------------------------------\
G-----------------5---------7-----------\
D--5--8-----5--5--------3-5-------------\
A---------------------------------------\
E---------------------------------------\
\
Second Track\
e--3--1-----------6---8---10------------\
B--------3------------------------------\
G---------------------------------------\
D---------------------------------------\
A---------------------------------------\
E---------------------------------------\

Login or Register to remove this ad.