Ads

Love Theme (Mass Effect) Guitar Tab

Submitted: Oct 30, 2013 by laoise

5
Average: 5 (3 votes)
Download | Listen
Game: Mass Effect
Composer(s): Jack Wall, Sam Hulick
Style: Arrangement, Fingerstyle

AutoScroll: Slow | Medium | Fast
Mass Effect - Love Theme
Arranged by laoise Earle

(Capo 3)


     Q    Q    Q    Q       Q    Q    Q    Q       Q    Q    Q    Q     
E||----------------------|----------------------|----------------------|
B||----------------------|----------------------|----------------------|
G||-----------------0----|----------------------|-----------------0----|
D||------------2---------|--4----0--------------|------------2---------|
A||-------2--------------|------------0----2----|-------2--------------|
E||--0-------------------|----------------------|--0-------------------|


  W                   Q    Q    Q    Q       Q    Q    Q    Q     
-------------------|----------------------|----------------------|
-------------------|----------------------|----------------------|
-------------------|-----------------0----|----------------------|
--4----------------|------------2---------|--4----0--------------|
-------------------|-------2--------------|------------0----2----|
-------------------|--0-------------------|----------------------|


  Q    Q    Q    Q       H.           E  E     Q    Q    Q    Q     
----------------------|---------------------|--0-------------------|
----------------------|------------------3--|----------------------|
-----------------0----|---------------------|-----------------0----|
------------2---------|--4------------------|------------2---------|
-------2--------------|---------------------|-------2--------------|
--0-------------------|---------------------|--0-------------------|


  Q    Q    Q    Q       Q    Q    Q    Q       H        E  E  E  E   
----------------------|----------------------|--------------0--------|
----------------------|----------------------|-----------3-----3--2--|
----------------------|-----------------0----|-----------------------|
--4----0--------------|------------2---------|--4--------------------|
------------0----2----|-------2--------------|-----------------------|
----------------------|--0-------------------|-----------------------|


  Q    Q    Q    Q       Q    Q    Q    Q       Q    Q    Q    Q     
----------------------|----------------------|----------------------|
--3-------------------|----------------------|----------------------|
-----------------0----|----------------------|-----------------0----|
------------2---------|--4----0--------------|------------2---------|
-------3--------------|------------0----2----|-------3--------------|
--0-------------------|----------------------|--0-------------------|


  Q    Q    E  E  E  E     Q    Q    Q    Q       Q    Q    Q    Q     
------------------------|----------------------|----------------------|
-------2----2--3--2--0--|--1-------------------|----------------------|
------------------------|--0--------------0----|----------------------|
--4----0----------------|------------2---------|--4----2--------------|
------------0-----2-----|-------3--------------|------------3---------|
------------------------|--0-------------------|-----------------3----|


  Q    Q    Q    Q       Q    Q    Q    E  E     Q    Q    Q    Q     
----------------------|-----------------------|----------------------|
----------------------|------------1----------|--0-------------------|
-----------------0----|--------------------2--|-----------------0----|
------------2---------|--4----2---------------|------------2---------|
--3----3--------------|------------3----------|-------2--------------|
--0-------------------|-----------------3-----|--0-------------------|


  Q    Q    Q    Q       Q    Q    Q    Q       H.           E  E   
----------------------|----------------------|---------------------|
----------------------|----------------------|------------------0--|
----------------------|-----------------0----|---------------2-----|
--4----0--------------|------------2---------|--4------------------|
------------0----2----|-------2--------------|---------------------|
----------------------|--0-------------------|---------------------|


  Q    Q    Q    Q       Q    Q    Q    Q       Q    Q    Q    Q     
----------------------|----------------------|--0-------------------|
--1-------------------|------------3---------|----------------------|
--0--------------0----|----------------------|--0--------------0----|
------------2---------|--4----2--------------|------------2---------|
-------3--------------|------------3---------|-------3--------------|
--0-------------------|-----------------3----|--0-------------------|


  H        Q    S S S S    Q    Q    Q    Q       Q    Q    Q    Q     
------------------------|----------------------|----------------------|
----------------0-1-0---|--0-------------------|----------------------|
----------------------2-|-----------------0----|----------------------|
--4--------2------------|------------2---------|--4----0--------------|
------------------------|-------2--------------|------------0----2----|
------------------------|--0-------------------|----------------------|


  Q    Q    Q    Q       H        H           Q    Q    Q    Q     
----------------------|--------------------|----------------------|
----------------------|--------------------|----------------------|
----------------------|--------------------|-----------------0----|
------------2----4----|--0-----------------|------------2---------|
-------2--------------|-----------2--------|--3----3--------------|
--0-------------------|--------------------|--0-------------------|


  Q    Q    Q    Q       Q    Q    Q    Q       Q    Q    Q    Q     
----------------------|----------------------|----------------------|
----------------------|----------------------|----------------------|
----------------------|-----------------0----|----------------------|
--4----0--------------|------------2---------|--4----2--------------|
------------0----2----|--3----3--------------|------------3---------|
----------------------|--0-------------------|-----------------3----|


  Q    Q    Q    Q       Q    Q    Q    Q       H        H         
----------------------|----------------------|--------------------|
----------------------|----------------------|--------------------|
-----------------0----|----------------------|--0-----------------|
------------2---------|------------2---------|--2-----------------|
--3----3--------------|--3----3---------3----|--------------------|
--3-------------------|--3-------------------|-----------3--------|


  H        H           Q    Q    Q    Q       Q    Q    Q    Q     
--------------------|----------------------|----------------------|
--------------------|----------------------|----------------------|
--------------------|-----------------0----|--4---------0---------|
--------------------|------------2---------|--4----0--------------|
--3-----------------|-------2--------------|------------0----2----|
--3--------3--------|--0-------------------|----------------------|


  Q    Q    Q    Q       H        Q    Q       Q    Q    Q    Q     
----------------------|---------------------|----------------------|
----------------------|---------------------|----------------------|
-----------------0----|--0--------2---------|----------------------|
--2---------2---------|--4--------0----4----|--2---------2----4----|
-------2--------------|---------------------|-------2--------------|
--0-------------------|---------------------|--0-------------------|


  E  E  E  E  E  E  Q       Q    Q    Q    Q       Q    Q    Q     Q     
--2--3--5--3--2--3--0----|------------0----2----|--3----5----7----10----|
-------------------------|----------------------|-----------------------|
--0-----------2-----0----|----------------------|--0--------------------|
--------4----------------|------------2----4----|-------4---------------|
-------------------------|-------2--------------|------------7----------|
-------------------------|--0-------------------|------------------7----|


     NH                         
     W                          
--<>12----------------|-------||
----------------------|-------||
----------------------|-------||
----------------------|-------||
----------------------|-------||
-----0----------------|-------||




Duration Legend
---------------
W - whole
H - half
Q - quarter
E - 8th
S - 16th
T - 32nd
X - 64th
. - note dotted
|-n-|  - n-tuplets


Tablature Legend
----------------
L - tied note
x - dead note
g - grace note
(n) - ghost note
> - accentuded note
NH - natural harmonic
AH - artificial harmonic
TH - tapped harmonic
SH - semi harmonic
PH - pitch harmonic
h - hammer on
p - pull off
b - bend
br - bendRelease
pb - preBend
pbr - preBendRelease
brb - bendReleaseBend
\n/ - tremolo bar dip
\n - tremolo bar dive
-/n - tremolo bar Release up
/n\ - tremolo bar inverted dip
/n - tremolo bar return
-\n - tremolo bar Release down
S - shift slide
s - legato slide
/ -  slide into from below or out of upwards
\ -  slide into from above or out of downwards
~ - vibrato
W - wide vibrato
tr - trill
TP - tremolo picking
T - tapping
S - slap
P - pop
< - fade in
^ - brush up
v - brush down
Login or Register to remove this ad.