Ads

Leaving Earth (Mass Effect 3) Guitar Tab

Submitted: Aug 26, 2012 by Basisti94

4.2
Average: 4.2 (10 votes)
Download | Listen
Game: Mass Effect 3
Composer(s): Sam Hulick, Cris Velasco, Clint Mansell, Christopher Lennertz, Sascha Dikiciyan
Style: Arrangement, Fingerstyle

AutoScroll: Slow | Medium | Fast
                                Leaving Earth                                   
Mass Effect 3
Composed by Clint Mansell (Piano arrangement by Sebastian Wolff)
Arranged for guitar by Basisti94 (Miro Laaksonen)
25/8/2012


     W                   W                   W                 
E||-------------------|-------------------|-------------------|
B||-------------------|-------------------|-------------------|
G||--0----------------|--0----------------|--2----------------|
D||--2----------------|-------------------|--0----------------|
A||-------------------|--3----------------|-------------------|
E||--0----------------|-------------------|-------------------|


                       ^                                 
  W                    E    E    E    E    E   E  E  E   
-------------------|--(7)--(7)--(7)--(7)--(7)--L--7--L--|
--0----------------|---------------------------5--L--5--|
--0----------------|---4-----------------------------L--|
--2----------------|---2-----------------------------L--|
-------------------|---2-----------------------------L--|
-------------------|---0-----------------------------L--|


   ^                                          ^                                 
   E    E    E    E    E    E    E    E       E    E    E    E    E   E  E  E   
--(7)--(7)--(7)--(7)--(7)--(7)--(7)--(7)--|--(7)--(7)--(7)--(7)--(7)--L--7--L--|
---0----------------------------------L---|---------------------------5--L--5--|
---0----------------------------------L---|---5-----------------------------L--|
---0----------------------------------L---|---7-----------------------------L--|
------------------------------------------|---7-----------------------------L--|
---3----------------------------------L---|---5-----------------------------L--|


   ^                                         ^                 
   E    E    E    E    E    E    E    E      W                 
--(7)--(7)--(7)--(7)--(7)--(7)--(7)--(7)--|-------------------|
---7----------------------------------L---|-------------------|
---7----------------------------------L---|--0----------------|
---9----------------------------------L---|--2----------------|
---9----------------------------------L---|--2----------------|
---7----------------------------------L---|--0----------------|


  ^                       ^                   ^                     
  H        E  E  E  E     W                   H        E  E  E  E   
-----------------7-----|-------------------|-----------------7-----|
--------------5--L--5--|-------------------|--------------5--L--5--|
--0-----------------L--|--0----------------|--0-----------------L--|
--2-----------------L--|--2----------------|--2-----------------L--|
--3-----------------L--|--2----------------|--2-----------------L--|
--3-----------------L--|--0----------------|--0-----------------L--|


  ^                                   ^                                       
  E   E    E    E    E   E  E  E      E    E    E    E    E    E    E    E    
-----(7)--(7)--(7)--(7)-----7-----|--(7)--(7)--(7)--(7)--(7)--(7)--(7)--(7)--|
-------------------------5--L--5--|---0----------------------------------L---|
--4----------------------------L--|---0----------------------------------L---|
--2----------------------------L--|---0----------------------------------L---|
--2----------------------------L--|------------------------------------------|
--0----------------------------L--|---3-----------------------------L----0---|


   E    E    E   E   E   E  E  E      E    E    E    E    E    E    E    E    
--(7)--(7)--(7)--7--(7)-----7-----|--(7)--(7)--(7)--(7)--(7)--(7)--(7)--(7)--|
-------------------------5--L--5--|------------------------------------------|
----------------------------------|---7------------------------L----7----L---|
----------------------------------|--------9-------------------L----9----L---|
----------------------------------|---9------------------------L----9--------|
---0------------------------L--0--|---7------------------------L----7----0---|


                                       ^                 
   E    E    E    E    E   E  E  E     W                 
--(7)--(7)--(7)--(7)--(7)-----7-----|-------------------|
---------------------------5--L--5--|--5----------------|
------------------------------------|-------------------|
---2-----------------------------L--|--5----------------|
------------------------------------|--3----------------|
---0-----------------------------L--|-------------------|


  ^                       ^                     ^                        
  Q    Q.     E  E  E     H.           E  E     E  E  E  E  E  E  E  E   
-----------------7-----|---------------------|--7--7--7--7--7--L--7--L--|
-------1------5--L--5--|--0---------------L--|-----------------5--L--5--|
--2-----------------L--|--0---------------L--|--4--------------------L--|
--0-----------------L--|--2---------------L--|--5--------------------L--|
--0-----------------L--|--2---------------L--|--2--------------------L--|
-----------------------|--0------------L--0--|--0--------------------L--|


  ^                          ^                        
  E  E  E  E  E  E  E  E     E  E  E  E  E  E  E  E   
--7--7--7--7--7--7--7--7--|--7--7--7--7--7--L--7--L--|
--0-----------0--------L--|-----------------5--L--5--|
--0--------------------L--|--5--------------------L--|
--7--------------------L--|--7--------------L--7--L--|
--------------------------|--7--------------------L--|
--3--------------------L--|--5--------------------L--|


  ^                          ^                        
  E  E  E  E  E  E  E  E     E  E  E  E  E  E  E  E   
--7--7--7--7--7--7--7--7--|--7--7--7--7--7--L--7--L--|
--7--------------------L--|-----------------5--L--5--|
--7--------------------L--|--4--------------------L--|
--9-----L--9-----------L--|--5--------------------L--|
--9--------------------L--|--2--------------------L--|
--7--------------------L--|--0--------------------L--|


  ^                          ^                        
  E  E  E  E  E  E  E  E     E  E  E  E  E  E  E  E   
--7--7--7--7--7--7--7--7--|--7--7--7--7--7--L--7--L--|
--0--------------------L--|-----------------5--L--5--|
--0--------------------L--|--5--------------------L--|
--0--------------------L--|--7--------------L-----L--|
--------------------------|--7--------------------L--|
--3--------------------L--|--5--------------------L--|


  ^                          ^                        
  E  E  E  E  E  E  E  E     E  E  E  E  E  E  E  E   
--7--7--7--7--7--7--7--7--|--7--7--7--7--7--L--7--L--|
--7--------------------L--|-----------------5--L--5--|
--7--------------------L--|--4--------------L--4--L--|
--9--------------------L--|--5--------------------L--|
--9--------------------L--|--2--------------------L--|
--7--------------------L--|--0--------------------L--|


  ^                          ^                        
  E  E  E  E  E  E  E  E     E  E  E  E  E  E  E  E   
--7--7--7--7--7--7--7--7--|--7--7--7--7--7--L--7--L--|
--0--------------------L--|-----------------5--L--5--|
--0--------------------L--|--5--------------------L--|
--0--------------------L--|--7--------------L-----L--|
--------------------------|--7--------------------L--|
--3--------------------L--|--5--------------------L--|


  ^                                                   
  E  E  E  E  E  E  E  E     E  E  E  E  E  E  E  E   
--7--7--7--7--7--7--7--7--|--7--7--7--7--7--L--7--L--|
--7--------------------L--|--------------------------|
--7--------------------L--|--9-----------L--9--L--9--|
--9--------------------L--|--------------------------|
--9--------------------L--|--7--------------------L--|
--7--------------------L--|--------------------------|


  E  E  E  E  E  E  E  E     E  E  E  E  E  E  E  E   
--7--7--7--7--7--L--7--L--|--7--7--7--7--7--L--7--L--|
-----------------5-----5--|-----------------5--L--5--|
--5--------------------L--|--2--------------------L--|
--------------------------|--------------------------|
--3--------------------L--|--0--------------------L--|
--------------------------|--------------------------|


  ^                          ^                             NH                
  E  E  E  E  E  E  E  E     E  E  E  E  E  E  E  E        W                 
--7--7--7--7--7--7--7--7--|--7--7--7--7--7--L--7--L--|----------------------|
--------------------------|--------------------------|----------------------|
--9--------------------L--|--9-----------L--9--L--9--|----------------------|
--9--------------------L--|--9--------------------L--|----------------------|
--7--------------------L--|--7--------------------L--|----------------------|
--------------------------|--------------------------|--<>12----------------|


-------------------||
-------------------||
-------------------||
-------------------||
-------------------||
-------------------||




Duration Legend
---------------
W - whole
H - half
Q - quarter
E - 8th
S - 16th
T - 32nd
X - 64th
. - note dotted
|-n-|  - n-tuplets


Tablature Legend
----------------
L - tied note
(n) - ghost note
NH - natural harmonic
Login or Register to remove this ad.

4 comments on Leaving Earth

I don't know why this only

5

I don't know why this only had 2.5 stars, plays accurately in my opinion. Good job & thank you, friend.

Some idiot probably decided

Some idiot probably decided some fingerings are too hard for him/her to handle and gave 1 star out of frustration. It's a fine arrangement imo

Is there a simpler version of

Is there a simpler version of this tabs?

Despite it being pretty hard

5

Despite it being pretty hard for me, it's actually playable and sounds great. You did a great job with this one, thanks.